Parokya Ni Edgar - Sampip Chords & Tabs

 

Sampip Chords & Tabs

Parokya Ni Edgar Chords & Tabs

Version: 6 Type: Tab 0 ratings
1 star 2 stars 3 stars 4 stars 5 stars
comments

Sampip Tab

hi..i'm jesse tiongco from laguna..sana magustuhan nyo itong ipinasa kong
tab..kapa ko lang kasi ito, sana tama..hehehe.. c",)


SOLO:
E----------------------------------------------------------------------
B------------------------15--------------------------------------------
G------12--12-14-14bf14bf-14br-12-14-12----------------9-11-12-12/14-14
D-12/14--14-----------------------------14------9-10-12----------------
A------------------------------------------10-12-----------------------
E----------------------------------------------------------------------

E----------------------------------------------------------------------
B--17-17po15-------------------15-15-13-15-13-15-13-13/15--------------
G-----------16-17-16-14-16-17--14-14-12-14-12-14-12------14/16---------
D----------------------------------------------------------------------
A----------------------------------------------------------------------
E----------------------------------------------------------------------
[ Tab from: http://www.guitartabs.cc/tabs/p/parokya_ni_edgar/sampip_tab_ver_6.html ]
E----------------------------------------------------------------------
B----------------------------------------------------------------------
G-16\14-12-14-12-12--11--12--14-12-14-14/16-14-12-14-12-11-----12------
D------------------14--14--14-----------------------------14h16--------
A----------------------------------------------------------------------
E----------------------------------------------------------------------

OUTRO:
E----------------------------------------------------------------------
B----------------------------------------------------------------------
G-----16-16--16-14--14-------------16-14-------------14-16-14--14------
D---17-----17-----17--17-14-17-16-------17-16-17---17--------17--17----
A--------------------------------14-------------15-15------------------
E----------------------------------------------------------------------

E----------------------------------------------------------------------
B------15----15----15----15----15-15/17-17-15-13-12-13-13/15-12--------
G-14h16-14h16-14h16-14h16-14h16---14/16-16-14--------------------------
D----------------------------------------------------------------------
A----------------------------------------------------------------------
E----------------------------------------------------------------------
      [FADE OUT]
acoustic version kasi yung kinapa ko kaya nagfade out..di ko tuloy nabuo
hanggang katapusan ng outro......enjoy!!!
Comments