Parokya Ni Edgar - Sampip Chords & Tabs

 

Sampip Chords & Tabs

Parokya Ni Edgar Chords & Tabs

Version: 3 Type: Tab 0 ratings
1 star 2 stars 3 stars 4 stars 5 stars
comments

Sampip Tab

   
song: sampip
band: parokya ni edgar
tabbed by jeff h.(y2jc_28@yahoo.com)
                    hey, this is the right version of sampip. my other one was totally wrong, i mean the outro was, so here is the right version for the people who want it.Enjoy!

intro: G-Em7-C9-D-Dsus-D-Dsus-D(2x)

1st verse: G-Em7-C9-D-Dsus-D-Dsus-D(2x)

some people of shoes
of certain kinds
some people of afternoons 
for the way the moon shines
and they have their own reasons
to feel the way they do
that's why i ask myself
what it is with you

chorus: C9-D-Dsus-D-Dsus-D9(3x)

is there something wrong
with the way i speak
do you even see me
when i pass you on the street
i'll close my eyes 
and let it be
           Em
because i just can't see
C               D-Dsus-D-Dsus-D
why you love to hate me

repeat intro

2nd verse: same chords as 1st verse

some people of weekends 
because they can fool around
some people of thunderstorms
because of how the drops of rain fall down
and they have their own reason
whatever they may be
that's why i think its kinda funny 
that you don't have one for me

repeat chorus

Solo:(distortion)
e---------------------------------------------
b---------------------------------------------
g-----12--12-14-14b-14b---16-16-14-12-14-12---
d--s14--14----------------------------------14
a---------------------------------------------
e---------------------------------------------

e-------------------------------12---------------------
b---------------------8s10-10-----12s13-12s13-12--12-13
g--------------9-11-12--------------------------14-----
d-------9-10-12----------------------------------------
a--10-12-----------------------------------------------
e------------------------------------------------------

e--10-10-8-10-8-10-8--8h10---------------------------------
b--10-10-8-10-8-10-8------10s12---12-10-8-10-8-8-7-8-10-8-7
g-----------------------------------------------9-9--------
d----------------------------------------------------------
a----------------------------------------------------------
e----------------------------------------------------------

e--------------------------
b--10s12-12--8s10-10--7s8-8
g--------------------------
d--------------------------
a--------------------------
e--------------------------

3rd verse: C9-Em7-C9-D-Dsus-D-Dsus-D(2x)
[ Tab from: http://www.guitartabs.cc/tabs/p/parokya_ni_edgar/sampip_tab_ver_3.html ]
and it sucks to face the truth
that i ain't got no reason to it
never ask the simple question 
why i feel the way i do
and i know its stupid on my part 
to say that i love you 
even though i know you hate me
and i don't know why you do

repeat chorus

Outro:(distortion)
e--------------------------------7------------------7-------
b--s12-12-12--12-10-8s10-8---8-7---10-8s10-8----8-10-10-8-10
g--------------------------------------------9--9-----------
d-----------------------------------------------------------
a-----------------------------------------------------------
e-----------------------------------------------------------

e-------10-------------10s12--12-10--8-7s8--10s12---------------
b--10s12--(repeat 5x)--10s12--12-10--8-7s8-------12-10-8-7h8p7-8
g-------------------------------------------------------------9-
d---------------------------------------------------------------
a---------------------------------------------------------------
e---------------------------------------------------------------

e---------------------------------------------
b--7h8p7---------------7-7h8p7--7-8s10-8-7-7s8
g--------9-7-----7--7---------9---------------
d------------7-9--9---------------------------
a---------------------------------------------
e---------------------------------------------

e-----------------------------------------------------
b--8s10--10-10s12--12-12s10--10-10s8--7-7s8-7---8-7---
g--------------------------------------------9-7---7s9
d-----------------------------------------------------
a-----------------------------------------------------
e-----------------------------------------------------

e----------------------------------------15---
b----------------------------------15-15b--15b
g-----5----7--7-9-12-14-14b---14s16-----------
d--5s7--7s9--9--------------------------------
a---------------------------------------------
e---------------------------------------------

e--10-10-8-10-8-7-8--7s8-7--7-7-------------------------------10v
b--10-10-8-10-8-7-8--------10---10b-8-10-8---------------10s12---
g------------------------------------------9-------7-9-7---------
d----------------------------------------------7s9---------------
a----------------------------------------------------------------
e----------------------------------------------------------------

e--------------
b--12-10s8----8(use tremolo or vibrate at the end)
g---------9-7-7
d--------------
a--------------
e--------------
that's all

notations:
b-bend
s-slide
v-vibrate
p-pull off








Comments