Parokya Ni Edgar - Ordertaker Chords & Tabs

 

Ordertaker Chords & Tabs

Parokya Ni Edgar Chords & Tabs

Version: 2 Type: Tab 0 ratings
1 star 2 stars 3 stars 4 stars 5 stars
comments

Ordertaker Tab

Ordertaker by Parokya ni Edgar

Your tuning should be change to Drop D (DADGBe) to play this song.

I'm 99% sure that this tab is correct.

Intro:

e|-----------------------------------------------------------|
B|-----------------------------------------------------------|
G|-----------------------------------------------------------|
D|--2----5-5-4-4-4-2--------10-10-10-10-10-10--9-9-9-9-9-9---|(2x)
A|--2----5-5-4-4-4-2--------10-10-10-10-10-10--9-9-9-9-9-9---|
D|--2----5-5-4-4-4-2--------10-10-10-10-10-10--9-9-9-9-9-9---|

e|----------------------------------------------------------------|
B|----------------------------------------------------------------|
G|----------------------------------------------------------------|
D|---5-4-2-5-4-2-5-4-2-5-4-2-----10-10-10-10-10-10--9-9-9-9-9-9---|
A|---5-4-2-5-4-2-5-4-2-5-4-2-----10-10-10-10-10-10--9-9-9-9-9-9---|
D|---5-4-2-5-4-2-5-4-2-5-4-2-----10-10-10-10-10-10--9-9-9-9-9-9---|

e|-----------------------------------------------------------|
B|-----------------------------------------------------------|
G|-----------------------------------------------------------|
D|--2----5-5-4-4-4-2--------10-10-10-10-10-10--9-9-9-9-9-9---|
A|--2----5-5-4-4-4-2--------10-10-10-10-10-10--9-9-9-9-9-9---|
D|--2----5-5-4-4-4-2--------10-10-10-10-10-10--9-9-9-9-9-9---|

riff
e|----------------------------------------------------|
B|---------------------------8----8-------------------|
G|------9----9----9----9---7----7-------7----7--------|
D|----9----9----9----9---5----5-------7----7----------|
A|--7----7----7----7----------------5----5------------|
D|----------------------------------------------------|

e|----------------------------------------------------|
B|----------------------------------------------------|
G|------9----9----9----9-----5----5-----4----4--------|
D|----9----9----9----9-----5----5-----4----4----------|
A|--7----7----7----7-----3----3-----2----2------------|
D|----------------------------------------------------|

verse:
e|----------------------------------------------------|
B|----------------------------------------------------|
G|----------------------------------------------------|
D|--14-14----14-14-14-14-14-14-14-14-13-13------------|
A|--14-14----14-14-14-14-14-14-14-14-13-13------------|
D|--14-14----14-14-14-14-14-14-14-14-13-13------------|
    waiter  paorder nga ako ng isang pork chop

e|----------------------------------------------------|
B|----------------------------------------------------|
G|----------------------------------------------------|
D|--13-13-13-13-13-13-13-13-14-14---------------------|
A|--13-13-13-13-13-13-13-13-14-14---------------------|
D|--13-13-13-13-13-13-13-13-14-14---------------------|
  atsaka ng dalawang na   kanin

e|----------------------------------------------------|
B|----------------------------------------------------|
G|----------------------------------------------------|
D|--14-14-14-14-14-14-14-14-13-13---------------------|
A|--14-14-14-14-14-14-14-14-13-13---------------------|
D|--14-14-14-14-14-14-14-14-13-13---------------------|
  lagyan mo na rin ng konting ketchup

e|----------------------------------------------------|
B|----------------------------------------------------|
G|----------------------------------------------------|
D|--13-13-13-13-13-13-13-13-14-14---------------------|
A|--13-13-13-13-13-13-13-13-14-14---------------------|
D|--13-13-13-13-13-13-13-13-14-14---------------------|
     meron ba kayong      chopsuey    (wala po)

e|----------------------------------------------------|
B|----------------------------------------------------|
G|----------------------------------------------------|
D|--14-14-14-14-14-14-14-14-13-13---------------------|
A|--14-14-14-14-14-14-14-14-13-13---------------------|
D|--14-14-14-14-14-14-14-14-13-13---------------------|
     meron ba kayong       adobo      (wala rin po)

e|----------------------------------------------------|
B|----------------------------------------------------|
G|----------------------------------------------------|
D|--13-13-13-13-13-13-13-13-14-14---------------------|
A|--13-13-13-13-13-13-13-13-14-14---------------------|
D|--13-13-13-13-13-13-13-13-14-14---------------------|
     meron ba kayong       bulalo     (ubos na po)

e|------------------------------------------------------------------|
B|------------------------------------------------------------------|
G|------------------------------------------------------------------|
D|--14-14-14-14-14-14-14-14-13-13-----------13-13-13-13-13-13-13-13-|
A|--14-14-14-14-14-14-14-14-13-13-----------13-13-13-13-13-13-13-13-|
D|--14-14-14-14-14-14-14-14-13-13-----------13-13-13-13-13-13-13-13-|
      meron kayong kahit na ano    (wala)     wala!!

chorus:
e|--------------------------------------------------------------------|
B|--------------------------------------------------------------------|
G|--------------------------------------------------------------------|
D|--2-------------5-5-4-4-4-2--------10-10-10-10-10-10--9-9-9-9-9-9---|
A|--2-------------5-5-4-4-4-2--------10-10-10-10-10-10--9-9-9-9-9-9---|
D|--2-------------5-5-4-4-4-2--------10-10-10-10-10-10--9-9-9-9-9-9---|
   Hoy! wala ng ma-oh!         wala ng maorder        oh waiter

e|--------------------------------------------------------------------|
B|--------------------------------------------------------------------|
G|--------------------------------------------------------------------|
D|--2-------------5-5-4-4-4-2--------10-10-10-10-10-10--9-9-9-9-9-9---|
A|--2-------------5-5-4-4-4-2--------10-10-10-10-10-10--9-9-9-9-9-9---|
D|--2-------------5-5-4-4-4-2--------10-10-10-10-10-10--9-9-9-9-9-9---|
   syet!mron ngang menu        wala nmang maorder     oh waiter
[ Tab from: http://www.guitartabs.cc/tabs/p/parokya_ni_edgar/ordertaker_tab_ver_2.html ]
e|----------------------------------------------------------------|
B|----------------------------------------------------------------|
G|----------------------------------------------------------------|
D|---5-4-2-5-4-2-5-4-2-5-4-2-----10-10-10-10-10-10--9-9-9-9-9-9---|
A|---5-4-2-5-4-2-5-4-2-5-4-2-----10-10-10-10-10-10--9-9-9-9-9-9---|
D|---5-4-2-5-4-2-5-4-2-5-4-2-----10-10-10-10-10-10--9-9-9-9-9-9---|
       sana naman             may siopa man lng   o burger
e|--------------------------------------------------------------------|
B|--------------------------------------------------------------------|
G|--------------------------------------------------------------------|
D|--2-------------5-5-4-4-4-2--------10-10-10-10-10-10--9-9-9-9-9-9---|
A|--2-------------5-5-4-4-4-2--------10-10-10-10-10-10--9-9-9-9-9-9---|
D|--2-------------5-5-4-4-4-2--------10-10-10-10-10-10--9-9-9-9-9-9---|
  paorder!  paorder!                     paorder....
riff
e|----------------------------------------------------|
B|---------------------------8----8-------------------|
G|------9----9----9----9---7----7-------7----7--------|
D|----9----9----9----9---5----5-------7----7----------|
A|--7----7----7----7----------------5----5------------|
D|----------------------------------------------------|

e|----------------------------------------------------|
B|----------------------------------------------------|
G|------9----9----9----9-----5----5-----4----4--------|
D|----9----9----9----9-----5----5-----4----4----------|
A|--7----7----7----7-----3----3-----2----2------------|
D|----------------------------------------------------|

repeat verse
repeat chorus

e|--------------------------------------------|
B|--------------------------------------------|
G|--------------------------------------------|
D|--14-14-14-14-14-14-14-13-13-13-13-13-13-13-|
A|--14-14-14-14-14-14-14-13-13-13-13-13-13-13-|
D|--14-14-14-14-14-14-14-13-13-13-13-13-13-13-|

  --------------------------------------------|
  --------------------------------------------|
  --------------------------------------------|
  16-16-16-16-16-16-16-19-19-19-19-19-19-19---|(2x)
  16-16-16-16-16-16-16-19-19-19-19-19-19-19---|
  16-16-16-16-16-16-16-19-19-19-19-19-19-19---|

e|--------------------------------------------|
B|--------------------------------------------|
G|--------------------------------------------|
D|--14-14-14-14-14-14-14-13-13-13-13-13-13-13-|
A|--14-14-14-14-14-14-14-13-13-13-13-13-13-13-|
D|--14-14-14-14-14-14-14-13-13-13-13-13-13-13-|
       waiter!! (waiter)
  --------------------------------------------|
  --------------------------------------------|
  --------------------------------------------|
  16-16-16-16-16-16-16-19-19-19-19-19-19-19---|(2x)
  16-16-16-16-16-16-16-19-19-19-19-19-19-19---|
  16-16-16-16-16-16-16-19-19-19-19-19-19-19---|
       order!!  (order)

e|--------------------------------------------|
B|--------------------------------------------|
G|--------------------------------------------|
D|--14-14-14-14-14-14-14-13-13-13-13-13-13-13-|
A|--14-14-14-14-14-14-14-13-13-13-13-13-13-13-|
D|--14-14-14-14-14-14-14-13-13-13-13-13-13-13-|
         waiter        na      gwapito
  --------------------------------------------|
  --------------------------------------------|
  --------------------------------------------|
  16-16-16-16-16-16-16-19-19-19-19-19-19-19---|
  16-16-16-16-16-16-16-19-19-19-19-19-19-19---|
  16-16-16-16-16-16-16-19-19-19-19-19-19-19---|
    ano    bang         meron   dito

e|--------------------------------------------|
B|--------------------------------------------|
G|--------------------------------------------|
D|--14-14-14-14-14-14-14-13-13-13-13-13-13-13-|
A|--14-14-14-14-14-14-14-13-13-13-13-13-13-13-|
D|--14-14-14-14-14-14-14-13-13-13-13-13-13-13-|
      waiter           na  gwapito
  --------------------------------------------|
  --------------------------------------------|
  --------------------------------------------|
  16-16-16-16-16-16-16-19-19-19-19-19-19-19---|
  16-16-16-16-16-16-16-19-19-19-19-19-19-19---|
  16-16-16-16-16-16-16-19-19-19-19-19-19-19---|
       meron             bang

bridge:
e|------------------------------------------------|
B|------------------------------------------------|
G|------------------------------------------------|
D|--2-2-2-2--10-10-10-10--5-5-5-5--10-10-10-10----|
A|--2-2-2-2--10-10-10-10--5-5-5-5--10-10-10-10----|
D|--2-2-2-2--10-10-10-10--5-5-5-5--10-10-10-10----|
  chiken mami,longsi,tosi at tapsi,pansit,lugaw

  --------------------------------------------|
  --------------------------------------------|
  --------------------------------------------|
  2-2-2-2--10-10-10-10--5-5-5-5--10-10-10-10--|
  2-2-2-2--10-10-10-10--5-5-5-5--10-10-10-10--|
  2-2-2-2--10-10-10-10--5-5-5-5--10-10-10-10--|
  at lomi, tokwat baboy pares     beef

  ---------------------------------------------|
  ---------------------------------------------|
  ---------------------------------------------|
  2-2-2-2--10-10-10-10--5-5-5-5--10-10-10-10---|
  2-2-2-2--10-10-10-10--5-5-5-5--10-10-10-10---|
  2-2-2-2--10-10-10-10--5-5-5-5--10-10-10-10---|
   fried     sio--------mai--------------------|      gutom na talaga

  ----------------------------------------------------|
  ----------------------------------------------------|
  ----------------------------------------------------|
  2-2-2-2--10-10-10-10--5-5-5-5--10-------------------|
  2-2-2-2--10-10-10-10--5-5-5-5--10-------------------|
  2-2-2-2--10-10-10-10--5-5-5-5--10-------------------|
   ako-oh     sio-------mai---------------------------|      gutom na talaga ako

e|---------|
B|---------|
G|---------|
D|---5-4-2-|(8x)
A|---5-4-2-|
D|---5-4-2-|

e|-----------------------------------|
B|-----------------------------------|
G|-----------------------------------|
D|--10-10-10-10-10-10--9-9-9-9-9-9---|
A|--10-10-10-10-10-10--9-9-9-9-9-9---|
D|--10-10-10-10-10-10--9-9-9-9-9-9---|

repeat chorus

e|---------|
B|---------|
G|---------|
D|---5-4-2-|(8x)
A|---5-4-2-|
D|---5-4-2-|

e|-------------------------------------|
B|-------------------------------------|
G|-------------------------------------|
D|--2-2-2-2-4-4-5-------2-2-2-2-4-4-5--|(2x)
A|--2-2-2-2-4-4-5-------2-2-2-2-4-4-5--|
D|--2-2-2-2-4-4-5-------2-2-2-2-4-4-5--|
 tanginang karinderia,wla man lng pang merienda.

end


suggestion:
because of the speed of change of the power chords,
i suggest you should use only one finger per chord.

tnx..
Comments