Parokya Ni Edgar - Oka Tokat Chords & Tabs

 

Oka Tokat Chords & Tabs

Parokya Ni Edgar Chords & Tabs

Version: 3 Type: Tab 0 ratings
1 star 2 stars 3 stars 4 stars 5 stars
comments

Oka Tokat Tab

WarMup before you hit! my tab... GOodDAy!
"Pratice{80% until you gotThisee.}
Intro: rEpeat {2X}
E||-------6---6-------6---6-------6--6--------6---6-----|
B||-----7---7---7---7---7---7---7---7---7---7---7---7---|
G||---9---9---9---8---8---8---7---7---7---6---6---6-----|
D||-----------------------------------------------------|
A||-----------------------------------------------------|
E||-----------------------------------------------------|

NeXt:
E||-------3---3---------2---2-------3---3----------2---2---|
B||-----4---4---4-----4---4---4---4---4---4-----2---4---2--|
G||---5---5---5-----4---4---4---5---5---5-----4---4---4----|
D||--------------------------------------------------------|
A||--------------------------------------------------------|
E||--------------------------------------------------------|

If you like thiS =
email"guitarlevongear@yahoo.com
[ Tab from: http://www.guitartabs.cc/tabs/p/parokya_ni_edgar/oka_tokat_tab_ver_3.html ]
Comments