Parokya Ni Edgar - My Shattered Belief Chords & Tabs

 

My Shattered Belief Chords & Tabs

Parokya Ni Edgar Chords & Tabs

Version: 3 Type: Tab 0 ratings
1 star 2 stars 3 stars 4 stars 5 stars
comments

My Shattered Belief Tab

song: my shattered belief
band: parokya ni edgar
tabbed by jeff h.(y2jc_28@yahoo.com)& glen b.(ycool2cool@yahoo.com
             hey, madali lang 'to. as in superdali. hindi joke lang medyo
nahirapan rin ako ng kunti. anyways enjoy!

solo (effects:Chorus + Delay)
[ Tab from: http://www.guitartabs.cc/tabs/p/parokya_ni_edgar/my_shattered_belief_tab_ver_3.html ]
e -------------------------------------------------------9-----------------------------------------------------12*------11*----|
b ----------------------12-----------12-------------------12--10--9--10--12--10--12--------------12---12*------12*------10*----|
g --8--9--9----9\11-------11(b)-------11(b)--9-------------------------------------------11\13---------------------------------|
d -----------------------------------------------------------------------------------------------------------------------------|
a -----------------------------------------------------------------------------------------------------------------------------|
e -----------------------------------------------------------------------------------------------------------------------------|

e ---------------------------------------------- .
b ---\12--11--11--11--11--11--11--11--11--11--9- .
g ---------------------------------------------- .
d ---------------------------------------------- .
a ---------------------------------------------- .
e ---------------------------------------------- .
that's all.
Comments