Parokya Ni Edgar - Muli Chords & Tabs

 

Muli Chords & Tabs

Parokya Ni Edgar Chords & Tabs

Version: 1 Type: Tab 0 ratings
1 star 2 stars 3 stars 4 stars 5 stars
comments

Muli Tab

   
pamagat: Muli
Banda: Parokya ni Edgar
Ginawa ni:Donn karlo Garrote Bcolod City SJI
September 15, 2005

"hindi lng ako sure,pro medyo ganun dn...bahala na kayo...ENJOY!!!"

Intro:(guitar 2)
E------7---7-----------------------------------------------|
B----5---5---5-4-4h5------4-4h5-4h5------------------------|
G--4-----------------4--6-----------6----------------------|4x
D----------------------------------------------------------|
A----------------------------------------------------------|
E----------------------------------------------------------|


then

E-----------------------------------------------------------|
B-----------------------------------------------------------|
G---6--8---9--8---9--11-------------------------------------|
D---7--9--11--9--11--13-------------------------------------|
A---7--9--11--9--11--13-------------------------------------|
E-----------------------------------------------------------|

(guitar 1)
E-C#m-E-C#m-A-B


1st vesre:
      E                     B
Kay bilis ng pangyayari at di ko namalayan
    C#m			B
na ako pala'y iiwan mo ng ganun na lang
E	                B
kahit na anong gawin di kayang tanggapin
    C#m			 B           A-B
ng puso ko't isipan na ika'y lilisan


chorus:(guitar 2)

with distortion

E--------------------------------------------------------------------|
B--------12-11-------------------------------------------------------|
G--9--8--11-11-----6---8---9--8---9--11------------------------------|
D--9--9---9--9-----7---9--11--9--11--13-2x---4--7--4--7--9-----------|
A--7--7------------7---9--11--9--11--13------4--7--4--7--9-----------|
E--------------------------------------------2--5--2--5--7-----------|


(guitar 1)
  E				   C#m
Maari bang dinggin ang natatangi kong hiling
  A             B
Sana ay makapiling kang
  E				 C#m
Muli kang masilayan at muli kang mahagkan
  A             B   F#m-A-F#m-A-B(pause)
Sana'y di na iwan pang muli


2nd verse(same as the 1st verse)

Hindi ko sinasadya na ikaw ay masaktan
kaya sana naman ay iyong maintindihan
Na ako ay nagsisisi at nangangako sayo
na di ka na luluha pang muli sa piling ko

(Ulitin ang chorus)

(Adliban) E-C#m7-A9-C#m7-B 2x (guitar 1)

(Guitar 2)
[ Tab from: http://www.guitartabs.cc/tabs/p/parokya_ni_edgar/muli_tab.html ]
E-------11-12-11----------11-12-11-----------------------------|
B-----12---------12----12----------14-12v----------------------|
G--13---------------13-----------------------------------------|2x
D--------------------------------------------------------------|
A--------------------------------------------------------------|
E--------------------------------------------------------------|

E--------11-12-11----14p11----16p11----------------------------|
B-----12----------12-------12-------12-------------------------|
G--13----------------------------------------------------------|
D--------------------------------------------------------------|
A--------------------------------------------------------------|
E--------------------------------------------------------------|

hindi ako sigurado dito..bahala na kayo....

E--------11-12-11-------11----12-------------------------------|
B-----12----------12-14----14----14-12-------------------------|
G--13----------------------------------------------------------|
D--------------------------------------------------------------|
A--------------------------------------------------------------|
E--------------------------------------------------------------|

E--------11-12-11----14p11----15611----------------------------|
B-----12----------12-------12-------12-------------------------|
G--13----------------------------------------------------------|
D--------------------------------------------------------------|
A--------------------------------------------------------------|
E--------------------------------------------------------------|

E--------11-12-11----------------------------------------------|
B-----12----------14-12v---------------------------------------|
G--13----------------------------------------------------------|
D--------------------------------------------------------------|
A--------------------------------------------------------------|
E--------------------------------------------------------------|


bridge:(guitar 1)
(guitar 2)
w/ delay
E-----------------------------------------------------------|
B-----------------------------------------------------------|
G---6--8---9--8---9--11-------------------------------------|2x
D---7--9--11--9--11--13-------------------------------------|
A---7--9--11--9--11--13-------------------------------------|
E-----------------------------------------------------------|


A		   B
 Di na ba mapagbibigyan

A          B
 bakit di maunawaan

(Ulitin ang chorus maliban sa huling salita)

(used the chorus cords)

Maari bang dinggin ang natatangi kong hiling
Sana ay patawarin mo
Ako ay nagsisi at nangangako sayo
di ka na luluha pang muli

ulitin lng ung intro......
>>>>>>>>>>>>>>>>>>>>END<<<<<<<<<<<<<<<<<<<<<<<<<
I dedicate this song to my "love"!haha!
luv you JENICE!!!:-)

ayus!!!!!!mga tol!!!!!!!!
regards sa mga kabanda:
Timmy-drums
Donn-guitars
Ed-guitars
Ralph-vocals
John-base
any sagestyn (donn2x_13@yahoo.com)
Comments