Parokya Ni Edgar - Mrsuave Chords & Tabs

 

Mrsuave Chords & Tabs

Parokya Ni Edgar Chords & Tabs

Version: 1 Type: Tab 0 ratings
1 star 2 stars 3 stars 4 stars 5 stars
comments

Mrsuave Tab

   

SUBMMITTED BY: Ronald S. Urcia
SUBJECT: TAB: Mr.Suave by Parokya ni Edgar
Email ADDRESS: r_urcia@yahoo.com
TUNING:  Tune down to 1/2 step note
         Eb Ab Db Gb Bb Eb
LEGENDS: h hammer-on
         p pull-off
         / slide
         v downstroke
INTRO:
       Cm                         F                    Dm                 Gm              
Eb------------------------------------5-6-5h6p5-------------5--8-8-6-5----------3-5-5/6------
Bb--------4------4----4-----3-4-----6-----------6-3------6--6--6-6-----6----3---3-3------3---
Gb-------5----5--5--5-5--5--------5----------------5---7------------------3----------------3-
Db------5----------------------------------------------7------------------5------------------
Ab-----3-----------------------------------------------5------------------5------------------
Eb------------------------------------------------------------------------3------------------
[ Tab from: http://www.guitartabs.cc/tabs/p/parokya_ni_edgar/mrsuave_tab.html ]
                                                             v hold
Eb-----------------------------------------------------------3--
Bb---4---4---4---3-4-----------------------4-3h4p3-----------3--
Gb---5-5-5-5-5-5-----5--3-2----2-2h3p2---3---------5-3-2-----3--
Db---5-----------------------5---------5-5---------------5-4-5--
Ab---3-----------------------------------5-------------------5--
Eb---------------------------------------3-------------------3--


VERSE:

Nasa ulap ba ang iyong mga mata?
Mukang malayo ang iyong pagtingala
Pakay ko lamang na ika'y pangitiin
Ito'y aking lambing...

Subok na ang aking pag-ibig
Ikaw lamang sa buong daigdig
Tumitibok na puso ko'y dinggin
Sumama ka na sa akin..

Technique dito sa chorus is just play it like ska
up or downstroke...
CHORUS:
Cm-F-Dm-Gm--Cm-F-Gm-F#m,Gm
Ako si mr.suave! Ooohh grabe!   Gm--F#,Gm break
Habulin ng babae, araw man o gabi
Oo ako si mr.suave...whoaa..grabe!
Hanep kung dumiskarte, wala silang masabi(grabe sa suave)

VERSE 2:
Kaya't wag ka nang malungkot
Problema'y ibaon sa limot
Pagka't nandito lang ako, umiibig sa'yo!

BRIDGE:
Hoy!hoy!hoy!hoy!hoy!hoY!
Hoy!hoy!hoy!hoy!hoy!hoY!
Hoy!hoy!hoy!hoy!hoy!hoY!
Hoy!hoy!hoy!hoy!hoy!hoY!
(repeat)

At kung kailangan na ika'y paligayahin
Wag mag-alinlangan na ika'y lumapit sa akin
Hatid sa atin ng suave kong bigote
Ang smooth na smooth na kiliteeeee.........
(repeat chorus)
(repeat bridge) 2x

THE END.. 
Thats all folks! If you have any suggestion or question
regarding this tab just email me or i text nyo na lang 
ako dito 09198032975.Thanks to everyone. 
Mabuhay tayong mga tabbers!
 
Comments