Parokya Ni Edgar - Mr Suave Chords & Tabs

 

Mr Suave Chords & Tabs

Parokya Ni Edgar Chords & Tabs

Version: 10 Type: Tab 0 ratings
1 star 2 stars 3 stars 4 stars 5 stars
comments

Mr Suave Tab

   
try nyo po tong tinab ko kung tama!!! sana magustohan nyo. ROCK ON!!!
jan n po ung mga pattern

Cm
x 3 5 5 4 3 F
1 3 3 2 1 1 Bb
x 1 3 3 3 1 Gm
3 5 5 3 3 3 


Gtr I (D# G# C# F# A# D#) - 'Rhythm'
Gtr II (D# G# C# F# A# D#) - 'Clean'
Gtr III (D# G# C# F# A# D#) - 'Lead'
Gtr IV (D# G# C# F# A# D#) - 'Nylon'


 Intro
  Q=75
  Cm                 F                     Bb                 Gm
 4/4
  Gtr I
   E E E E E E Q     E E E E   E   E E E   Q   Q    E E Q     E E Q   E E E E
|----------3-------|---------------------|------------1-----|-----------------|
|------------4-----|-----------1---------|------------------|-----------------|
|------5-------5---|---------------2-----|-----3----2---3---|-----------3-----|
|----5---5---------|-----3-----------3---|-----3------------|-----5---5---5---|
|--3---------------|---3---3-----------3-|-1----------------|---5-----------5-|
|------------------|-1-------------------|------------------|-3---------------|
|
| Gtr II
|  E E E E E E E E   E E E E a S S E E E   E E E E  E E E E   E E E E H
|-^3---3---3-------|-----5-6-5h6p5-------|-----6-8--8-6-5---|-----3-5-6-------|
|-^4---4---4---3-4-|---6-----------6-----|---6-----10-----6-|---3-----8-------|
|-^5-5---5---5-----|-5---------------7-5-|-7----------------|-3---------------|
|------------------|---------------------|------------------|-----------------|
|------------------|---------------------|------------------|-----------------|
|------------------|---------------------|------------------|-----------------|


  Cm                 F
   E E E E E E Q     E E E E  E a E Q
|------------------|--------------------|
|------------3-----|--------------------|
|------5---5---5---|----------2-2S3-2---|
|----5---5---------|-----3--------------|
|--3---------------|---3---3------------|
|------------------|-1------------------|
|
|  E E E E E E E E   E E E E  E   E E E
|-^3---3---3-------|--------------------|
|-^4---4---4---3-4-|--------------------|
|-^5-5---5---5-----|-5-3-2---^3---2---2-|
|------------------|-------3-^3-----3---|
|------------------|--------------------|
|------------------|--------------------|


  Gm
     PM
  E  E     E    E   E   E  Q      W
|------------------------------|------------|
|------------------------------|------------|
|------------------------------|------------|
|--------------(x)-(5)---------|-(5)--------|
|---(x)---(5)--(x)---------x---|------------|
|-3-(3)--------(3)-----(x)-x---|------------|
|
| E  E  a  S S  E   E   E  E E    q   H.
|------------------------------|-^3---------|
|----4--3h=4p3-----------------|-^3---------|
|-3-------------5---3---2------|-^3---------|
|--------------------------5-3-|------------|
|------------------------------|------------|
|------------------------------|------------|


 Verse
  Cm                 F
   H       E E Q      H       a E E Q
|-^3-------3-------|-^1-----------------|
|-^4---------4-----|-^1-----------------|
|-^5-----------5---|-^2-------2S3-2-0---|
|------------------|-^3-----------------|
|------------------|--------------------|
|------------------|--------------------|
|
|  E E E E E E E E    E E E E   E E E E
|------------3-----|--------5-----------|
|--4---4---4---4---|------6-----6---6---|
|----5---5-------5-|----5---------5---5-|
|------------------|--7-----------------|
|------------------|--------------------|
|------------------|--------------------|


  Bb                Gm
  E E E E H          Q   +E  E  E  E Q
|-------1---------|-^3---(3)------------|
|---------3-------|-^3---(3)-3-----3----|
|-----3-----------|-^3---(3)----3----3--|
|---3-------------|-^5---(5)------------|
|-1---------------|---------------------|
|-----------------|---------------------|
|
| E E E E E E E E    E E  E  E +H
|-------6---------|----------3-(3)------|
|-----6---6---6---|-------3-------------|
|---7-------7---7-|----3----------------|
|-8---------------|--5------------------|
|-----------------|---------------------|
|-----------------|---------------------|


  Cm                   F                   Gm
   E E E E a E E E E   Q   E E a E E Q     E E E E E E E E     W
|--------------------|-------------------|-----------------|---3--------|
|----------4h6-4-----|-------------------|-------------3---|---3--------|
|------5---------5-3-|-----2---2h3-2-----|---------3-----3-|------------|
|----5---5-----------|-------3-------3---|-----5-----5-----|------------|
|--3-----------------|-------------------|---5---5---------|------------|
|--------------------|-1-----------------|-3---------------|------------|
|
|  E E E E   E E E E   E E E E   E E E E   E E E E E E Q     a E H..
|-^3-----------------|-------------------|-----3---3---2---|-2s3--------|
|-^4---4-----4---3-4-|-------------------|---3---3---3-2---|-2s3--------|
|-^5-5---5-----5-----|-5-3-2-----3-2---2-|-3---------------|------------|
|--------------------|-------3-------3---|-----------------|------------|
|--------------------|-------------------|-----------------|------------|
|--------------------|-------------------|-----------------|------------|


  Cm                 F                  Bb                    Gm
   Q   q   Q   q     Q   q      Q  q    Q   q     Q     q     Q   q   Q  q
|------3-------3---|-----1---------1--|-----1-----------1---|-----3------3--|
|------4-------4---|-----1---------1--|-----3-----------3---|-----3------3--|
|------5-------5---|-----2---------2--|-----3-----------3---|-----3------3--|
|------------------|------------------|---------------------|---------------|
|------------------|------------------|---------------------|---------------|
|------------------|------------------|---------------------|---------------|
|
|                    ~
|  E E E E E E E E   Q  +E  S S H       E E E E a S S E E E   E E E E H
|-^3---------------|------------------|-----5-6-5h6p5-------|-----3-5-6-----|
|-^4---4---4---3-4-|--------6S8S6-----|---6-----------6-----|---3-----8-----|
|-^5-5---5---5-----|-5--(5)-5S7S5-----|-7---------------7-5-|-3-------------|
|------------------|------------------|---------------------|---------------|
|------------------|------------------|---------------------|---------------|
|------------------|------------------|---------------------|---------------|


                                                                Q=136
  Cm                 F                 Gm
                                                       2/4       3/4
   Q   q   Q   q     Q   q   Q   q     Q   q   H          H       H.
|------3-------3---|-----1-------1---|-----3----------|---------|-------||
|------4-------4---|-----1-------1---|-----3----------|---------|-------||
|------5-------5---|-----2-------2---|-----3----------|---------|-------||
|------------------|-----------------|----------------|---------|-------||
|------------------|-----------------|----------------|---------|-------||
|------------------|-----------------|----------------|---------|-------||
|
|  E E E E E E E E   E E E E E E E E   E E E E E E Q    a Q  Q    H.
|-^3---------------|-----------------|-----3-------2--|-2s3-----|-------||
|-^4---4---4---3-4-|-----------------|---3---3---3-2--|-2s3-----|-------||
|-^5-5---5---5-----|-5-3-2---3-2---2-|-3-------3------|---------|-------||
|------------------|-------3-----3---|----------------|---------|-------||
|------------------|-----------------|----------------|---------|-------||
|------------------|-----------------|----------------|---------|-------||


   Chorus
    Cm                   F
   4/4
      Gtr I
    E E  E  E  E E E E   E E  E E  E  E  E E
||----3-----3----3---3-|---1----1-----1----1-|
||o---4-----4----4---4-|---1----1-----1----1-|
||----5-----5----5---5-|---2----2-----2----2-|
||---------------------|---------------------|
||o--------------------|---------------------|
||---------------------|---------------------|
|
|       Gtr III
|   Q    E  E  H         Q    E E  E  Q.
||------15-15\---------|-----17---17\--------|
||o--------------------|---------------------|
||---------------------|---------------------|
||---------------------|---------------------|
||o--------------------|---------------------|
||---------------------|---------------------|


  Bb                    Gm
  E E  E E  E  E  E E   E E  E E  E E  E  E
|---1----1-----1----1-|---3----3----3-----3--|
|---3----3-----3----3-|---3----3----3-----3--|
|---3----3-----3----3-|---3----3----3-----3--|
|---------------------|----------------------|
|---------------------|----------------------|
|---------------------|----------------------|
|
| Q    E E  E  Q.       Q    E E  E E  E  E
|-----18---18\--------|-----15---15---15\----|
|---------------------|----------------------|
|---------------------|----------------------|
|---------------------|----------------------|
|---------------------|----------------------|
|---------------------|----------------------|


  Cm                   F
  E E  E  E  E E E E   E E  E E  E E  E  E
|---3-----3----3---3-|---1----1----1-----1-|
|---4-----4----4---4-|---1----1----1-----1-|
|---5-----5----5---5-|---2----2----2-----2-|
|--------------------|---------------------|
|--------------------|---------------------|
|--------------------|---------------------|
|
| Q    E  E  H         Q    E E  E E  E  E
|-----15-15\---------|-----17---17---17\---|
|--------------------|---------------------|
|--------------------|---------------------|
|--------------------|---------------------|
|--------------------|---------------------|
|--------------------|---------------------|


  Gm
  E E  E E  E E  Q     a  E H..
|---3----3----3--2---|-2s=3---------||
|---3----3----3--2---|-2s=3--------o||
|---3----3----3--2---|-2s=3---------||
|--------------------|--------------||
|--------------------|-------------o||
|--------------------|--------------||
|
| Q    E E  E E  E E      E H..
|-----15---15---15---|---15---------||
|--------------------|-------------o||
|--------------------|--------------||
|--------------------|--------------||
|--------------------|-------------o||
|--------------------|--------------||


 Interlude
  Cm                  F
   Q    E Q  Q.       Q    E Q  Q.
|---------3---------|--------1-----------|
|------^4----4------|-----^1----1--------|
|------^5-----------|-----^2-------------|
|------^5-----------|-----^3-------------|
|-------------------|--------------------|
|-------------------|--------------------|
|
| Gtr IV
|  TP            TP   TP            TP TP
|  H.            Q    H.            E  E
|-11------------10--|-8------------10-11-|
|-------------------|--------------------|
|-------------------|--------------------|
|-------------------|--------------------|
|-------------------|--------------------|
|-------------------|--------------------|


  Bb                  Gm
   Q    E Q  Q.        Q    E Q  Q.
|---------1---------|---------3-----------|
|------^3----3------|------^3----3--------|
|------^3-----------|------^3-------------|
|------^3-----------|------^5-------------|
|-------------------|---------------------|
|-------------------|---------------------|
|
|  TP            TP    TP           TP TP
|  H.            Q     H.           E  E
|-13------------11--|-10------------8-10--|
|-------------------|---------------------|
|-------------------|---------------------|
|-------------------|---------------------|
|-------------------|---------------------|
|-------------------|---------------------|


  Cm                  F                  Gm
   Q    E Q  Q.       Q    E Q  Q.       Q   E Q  E E E   Q  H.
|---------3---------|--------1---------|-------3----3---|-3--------||
|------^4----4------|-----^1----1------|----^3----3---3-|-3--------||
|------^5-----------|-----^2-----------|----^3----------|-3--------||
|------^5-----------|-----^3-----------|----^5----------|----------||
|-------------------|------------------|----------------|----------||
|-------------------|------------------|----------------|----------||
|
|  TP            TP   TP           TPTP  TP
|  H.            Q    H.           E E   W                W
|-11------------10--|-8------------6-5-|-6--------------|----------||
|-------------------|------------------|----------------|----------||
|-------------------|------------------|----------------|----------||
|-------------------|------------------|----------------|----------||
|-------------------|------------------|----------------|----------||
|-------------------|------------------|----------------|----------||


   Bridge
    Cm                       F                        Bb
    Gtr II
    E  E  E  E  E  E  E  E   E  E  E  E  E  E  E  E   E  E  E  E  E  E  E  E
||-----3-----3-----3-----3-|----1-----1-----1-----1-|----1-----1-----1-----1-|
||o----4-----4-----4-----4-|----1-----1-----1-----1-|----3-----3-----3-----3-|
||-----5-----5-----5-----5-|----2-----2-----2-----2-|----3-----3-----3-----3-|
||-------------------------|------------------------|------------------------|
||o------------------------|------------------------|------------------------|
||-------------------------|------------------------|------------------------|
|
|   Gtr III
|   E  E  E  E  E  E  E  E   E  E  E  E  E  E  E  E   E  E  E  E  E  E  E  E
||----11-10-11----11-10-11-|---11-10-11----11-10-11-|---13-11-13-10-13-11-13-|
||o------------13----------|------------13----------|------------------------|
||-------------------------|------------------------|------------------------|
||-------------------------|------------------------|------------------------|
||o------------------------|------------------------|------------------------|
||-------------------------|------------------------|------------------------|


  Gm                       Cm                       F
  E  E  E  E  E  E  E  E   E  E  E  E  E  E  E  E   E  E  E  E  E  E  E  E
|----3-----3-----3-----3-|----3-----3-----3-----3-|----1-----1-----1-----1-|
|----3-----3-----3-----3-|----4-----4-----4-----4-|----1-----1-----1-----1-|
|----3-----3-----3-----3-|----5-----5-----5-----5-|----2-----2-----2-----2-|
|------------------------|------------------------|------------------------|
|------------------------|------------------------|------------------------|
|------------------------|------------------------|------------------------|
|
| E  E  E  E  E  E  E  E   E  E  E  E  E  E  E  E   E  E  E  E  E  E  E  E
|---13-11-10-------------|---11-10-11----11-10-11-|---11-10----------------|
|------------13-11-10-11-|------------13----------|---------13-11-10----10-|
|------------------------|------------------------|------------------12----|
|------------------------|------------------------|------------------------|
|------------------------|------------------------|------------------------|
|------------------------|------------------------|------------------------|


                       1.                 2.         Q=75
  Gm
                                          2/4         3/4
  E  E  E  E  E E  Q    a  Q   H.          a  Q   Q    W
|----3-----3----3--2--|-2s=3------------||-2s=3------|------||
|----3-----3----3--2--|-2s=3-----------o||-2s=3------|------||
|----3-----3----3--2--|-2s=3------------||-2s=3------|------||
|---------------------|-----------------||-----------|------||
|---------------------|----------------o||-----------|------||
|---------------------|-----------------||-----------|------||
|
|                                             ~~~
| E  E  E  E  Q    Q       Q   H.             H        W
|---------------------|-----------------||-----------|------||
|---11-10---------10--|---11\----------o||---11\-----|------||
|---------12-11-------|-----------------||-----------|------||
|---------------------|-----------------||-----------|------||
|---------------------|----------------o||-----------|------||
|---------------------|-----------------||-----------|------||

[ Tab from: http://www.guitartabs.cc/tabs/p/parokya_ni_edgar/mr_suave_tab_ver_10.html ]
 Breakdown
  Cm                       F
 4/4
  Gtr I
  Q     q     Q     q       Q   q    Q       q
|-------3-----------3----|------1------------1------|
|-------4-----------4----|------1------------1------|
|-------5-----------5----|------2------------2------|
|------------------------|--------------------------|
|------------------------|--------------------------|
|------------------------|--------------------------|
|
| Gtr II
| E  E  E  E  E  E  E  E    E E E E  E    Q.
|----------------------3-|------5-------------------|
|-------4-----4-----4----|----6---6-------6---------|
|----5-----5-----5-------|--5--------5--------------|
|-5----------------------|--------------------------|
|------------------------|--------------------------|
|------------------------|--------------------------|
|
| Gtr III
| E  E  E  E  E  E  E  E    H        Q.         +E
|---10-11-13S15-11-13-15-|-13-------13b15r=====(13)-|
|------------------------|--------------------------|
|------------------------|--------------------------|
|------------------------|--------------------------|
|------------------------|--------------------------|
|------------------------|--------------------------|


  Bb                                  Gm
  Q    q        Q         q           Q    q   Q  q
|------1------------------1---------|------3------3--|
|------3------------------3---------|------3------3--|
|------3------------------3---------|------3------3--|
|-----------------------------------|----------------|
|-----------------------------------|----------------|
|-----------------------------------|----------------|
|
| E E  E     E  E     Q.              E  E E E H
|------------6----------------------|------3-5-6-----|
|------6--------6-------------------|----3-----8-----|
|---7-----------------7-------------|-3--------------|
|-----------------------------------|----------------|
|-----------------------------------|----------------|
|-----------------------------------|----------------|
|
|            ~~       ~~~
| Q    S  S  E  S  S  E   S  S S  S   H        H
|-----11-10----11-10----------------|----------------|
|-----------11-------13--13p11S8h11p|=8\-------------|
|-----------------------------------|----------------|
|-----------------------------------|----------------|
|-----------------------------------|----------------|
|-----------------------------------|----------------|


  Cm                                     F
  Q          q        H                   W
|------------3-------------------------|------------------|
|------------4-------------------------|------------------|
|------------5-------------------------|------------------|
|--------------------------------------|------------------|
|--------------------------------------|------------------|
|--------------------------------------|------------------|
|
| E E        E     E  E  E  E        E    E E E E E E E E
|-3------------------------------------|------------------|
|-4----------4--------4-----3--------4-|------------------|
|-5-5--------------5-----5-------------|--5-3-2---3-2---2-|
|--------------------------------------|--------3-----3---|
|--------------------------------------|------------------|
|--------------------------------------|------------------|
|
| E S  S  a  E  a  E  E  E  T  T  S  E    H       H
|--------------------10-11-10h11p10----|-13---------------|
|---8-10-10h11-11h13----------------13-|------------------|
|--------------------------------------|------------------|
|--------------------------------------|------------------|
|--------------------------------------|------------------|
|--------------------------------------|------------------|


  Gm
  W                             W
|-------------------------|---------------|
|-------------------------|---------------|
|-------------------------|---------------|
|-------------------------|---------------|
|-------------------------|---------------|
|-------------------------|---------------|
|
| E   E  E  E  E  E  Q      a   Q   H.
|--------3-----------2----|-2s==3---------|
|-----3-----3-----3--2----|-2s==3---------|
|-3------------3-----2----|-2s==3---------|
|-------------------------|---------------|
|-------------------------|---------------|
|-------------------------|---------------|
|
| E   E  E  E  E  E  E  E       Q   H.
|---/18-17----------------|---------------|
|----------18-13-11-10----|---/11\--------|
|----------------------10-|---------------|
|-------------------------|---------------|
|-------------------------|---------------|
|-------------------------|---------------|


   Chorus
    Q=136
    Cm                   F
    Gtr I
    E E  E  E  E E E E   E E  E E  E  E  E E
||----3-----3----3---3-|---1----1-----1----1-|
||o---4-----4----4---4-|---1----1-----1----1-|
||----5-----5----5---5-|---2----2-----2----2-|
||---------------------|---------------------|
||o--------------------|---------------------|
||---------------------|---------------------|
|
|   Gtr III
|   Q    E  E  H         Q    E E  E  Q.
||------15-15\---------|-----17---17\--------|
||o--------------------|---------------------|
||---------------------|---------------------|
||---------------------|---------------------|
||o--------------------|---------------------|
||---------------------|---------------------|


  Bb                    Gm
  E E  E E  E  E  E E   E E  E E  E E  E  E
|---1----1-----1----1-|---3----3----3-----3-|
|---3----3-----3----3-|---3----3----3-----3-|
|---3----3-----3----3-|---3----3----3-----3-|
|---------------------|---------------------|
|---------------------|---------------------|
|---------------------|---------------------|
|
| Q    E E  E  Q.       Q    E E  E E  E  E
|-----18---18\--------|-----15---15---15\---|
|---------------------|---------------------|
|---------------------|---------------------|
|---------------------|---------------------|
|---------------------|---------------------|
|---------------------|---------------------|


  Cm                   F
  E E  E  E  E E E E   E E  E E  E E  E  E
|---3-----3----3---3-|---1----1----1-----1-|
|---4-----4----4---4-|---1----1----1-----1-|
|---5-----5----5---5-|---2----2----2-----2-|
|--------------------|---------------------|
|--------------------|---------------------|
|--------------------|---------------------|
|
| Q    E  E  H         Q    E E  E E  E  E
|-----15-15\---------|-----17---17---17\---|
|--------------------|---------------------|
|--------------------|---------------------|
|--------------------|---------------------|
|--------------------|---------------------|
|--------------------|---------------------|


  Gm
  E E  E E  E E  Q     a  E H..
|---3----3----3--2---|-2s=3---------||
|---3----3----3--2---|-2s=3--------o||
|---3----3----3--2---|-2s=3---------||
|--------------------|--------------||
|--------------------|-------------o||
|--------------------|--------------||
|
| Q    E E  E E  E E      E H..
|-----15---15---15---|---15---------||
|--------------------|-------------o||
|--------------------|--------------||
|--------------------|--------------||
|--------------------|-------------o||
|--------------------|--------------||


 Bridge
  Cm                       F
  Gtr II
  E  E  E  E  E  E  E  E   E  E  E  E  E  E  E  E
|----3-----3-----3-----3-|----1-----1-----1-----1-|
|----4-----4-----4-----4-|----1-----1-----1-----1-|
|----5-----5-----5-----5-|----2-----2-----2-----2-|
|------------------------|------------------------|
|------------------------|------------------------|
|------------------------|------------------------|
|
| Gtr III
| E  E  E  E  E  E  E  E   E  E  E  E  E  E  E  E
|---11-10-11----11-10-11-|---11-10-11----11-10-11-|
|------------13----------|------------13----------|
|------------------------|------------------------|
|------------------------|------------------------|
|------------------------|------------------------|
|------------------------|------------------------|


  Bb                       Gm
  E  E  E  E  E  E  E  E   E  E  E  E  E  E  E  E
|----1-----1-----1-----1-|----3-----3-----3-----3--|
|----3-----3-----3-----3-|----3-----3-----3-----3--|
|----3-----3-----3-----3-|----3-----3-----3-----3--|
|------------------------|-------------------------|
|------------------------|-------------------------|
|------------------------|-------------------------|
|
| E  E  E  E  E  E  E  E   E  E  E  E  E  E  E  E
|---13-11-13-10-13-11-13-|---13-11-10--------------|
|------------------------|------------13-11-10-11--|
|------------------------|-------------------------|
|------------------------|-------------------------|
|------------------------|-------------------------|
|------------------------|-------------------------|


  Cm                       F
  E  E  E  E  E  E  E  E   E  E  E  E  E  E  E  E
|----3-----3-----3-----3-|----1-----1-----1-----1-|
|----4-----4-----4-----4-|----1-----1-----1-----1-|
|----5-----5-----5-----5-|----2-----2-----2-----2-|
|------------------------|------------------------|
|------------------------|------------------------|
|------------------------|------------------------|
|
| E  E  E  E  E  E  E  E   E  E  E  E  E  E  E  E
|---11-10-11----11-10-11-|---11-10----------------|
|------------13----------|---------13-11-10----10-|
|------------------------|------------------12----|
|------------------------|------------------------|
|------------------------|------------------------|
|------------------------|------------------------|


  Gm
  E  E  E  E  E E  Q    a  Q  H.
|----3-----3----3--2--|-2s=3-----------|
|----3-----3----3--2--|-2s=3-----------|
|----3-----3----3--2--|-2s=3-----------|
|---------------------|----------------|
|---------------------|----------------|
|---------------------|----------------|
|
|                          ~~
| E  E  E  E  Q    Q       H      H
|---------------------|----------------|
|---11-10---------10--|---11-----------|
|---------12-11-------|----------------|
|---------------------|----------------|
|---------------------|----------------|
|---------------------|----------------|


 Guitar Break
  Cm                        F
  Q     E  Q     Q.          Q     E  Q     Q.
|----------3--------------|-----------1-------------|
|------^4--------4--------|-------^1--------1-------|
|------^5-----------------|-------^2----------------|
|------^5-----------------|-------^3----------------|
|-------------------------|-------------------------|
|-------------------------|-------------------------|
|
| E  E  E  E  E  E   E  E    E  E  E  E  E  E  E  E
|---11-10-11----10--------|-------------------------|
|------------13-----11-13-|-10-11----10-------------|
|-------------------------|-------12----10-12--8-10-|
|-------------------------|-------------------------|
|-------------------------|-------------------------|
|-------------------------|-------------------------|


  Bb                        Gm
  Q     E  Q     Q.          Q     E  Q     Q.
|----------1--------------|-----------3---------------|
|------^3--------3--------|-------^3--------3---------|
|------^3-----------------|-------^3------------------|
|------^3-----------------|-------^5------------------|
|-------------------------|---------------------------|
|-------------------------|---------------------------|
|
| E  E  E  E  E  E   E  E    E  E  E  E  E  E   E  E
|---13-11-13-10-11-----10-|---------------------------|
|-------------------13----|-11-13-10-11----10---------|
|-7-----------------------|-------------12-----10-12--|
|-------------------------|---------------------------|
|-------------------------|---------------------------|
|-------------------------|---------------------------|


  Cm                        F
  Q     E  Q     Q.          Q     E  Q     Q.
|----------3--------------|-----------1--------------|
|------^4--------4--------|-------^1--------1--------|
|------^5-----------------|-------^2-----------------|
|------^5-----------------|-------^3-----------------|
|-------------------------|--------------------------|
|-------------------------|--------------------------|
|
| E  E  E  E  E  E   E  E    E  E  E  E  E  E   E  E
|---11-10-11----10--------|--------------------------|
|------------13-----11-13-|-10-11----10--------10-11-|
|-8-----------------------|-------12----10-12--------|
|-------------------------|--------------------------|
|-------------------------|--------------------------|
|-------------------------|--------------------------|


  Gm
   Q     E  Q    E  E  E    Q   H.
|-----------3-------3----|--3-----------------|
|-------^3-------3-----3-|--3-----------------|
|-------^3---------------|--3-----------------|
|-------^5---------------|--------------------|
|------------------------|--------------------|
|------------------------|--------------------|
|
|                           ~~~
|  E  E  E  E  E E  E  E    H.         +Q
|------------------------|--------------------|
|-13-11-10------------10-|-11---------(11)\---|
|----------12-10-7-12----|--------------------|
|------------------------|--------------------|
|------------------------|--------------------|
|------------------------|--------------------|


 Bridge
  Cm                       F
  E  E  E  E  E  E  E  E   E  E  E  E  E  E  E  E
|----3-----3-----3-----3-|----1-----1-----1-----1-|
|----4-----4-----4-----4-|----1-----1-----1-----1-|
|----5-----5-----5-----5-|----2-----2-----2-----2-|
|------------------------|------------------------|
|------------------------|------------------------|
|------------------------|------------------------|
|
| E  E  E  E  E  E  E  E   E  E  E  E  E  E  E  E
|---11-10-11----11-10-11-|---11-10-11----11-10-11-|
|------------13----------|------------13----------|
|------------------------|------------------------|
|------------------------|------------------------|
|------------------------|------------------------|
|------------------------|------------------------|


  Bb                       Gm
  E  E  E  E  E  E  E  E   E  E  E  E  E  E  E  E
|----1-----1-----1-----1-|----3-----3-----3-----3--|
|----3-----3-----3-----3-|----3-----3-----3-----3--|
|----3-----3-----3-----3-|----3-----3-----3-----3--|
|------------------------|-------------------------|
|------------------------|-------------------------|
|------------------------|-------------------------|
|
| E  E  E  E  E  E  E  E   E  E  E  E  E  E  E  E
|---13-11-13-10-13-11-13-|---13-11-10--------------|
|------------------------|------------13-11-10-11--|
|------------------------|-------------------------|
|------------------------|-------------------------|
|------------------------|-------------------------|
|------------------------|-------------------------|


  Cm                       F
  E  E  E  E  E  E  E  E   E  E  E  E  E  E  E  E
|----3-----3-----3-----3-|----1-----1-----1-----1-|
|----4-----4-----4-----4-|----1-----1-----1-----1-|
|----5-----5-----5-----5-|----2-----2-----2-----2-|
|------------------------|------------------------|
|------------------------|------------------------|
|------------------------|------------------------|
|
| E  E  E  E  E  E  E  E   E  E  E  E  E  E  E  E
|---11-10-11----11-10-11-|---11-10----------------|
|------------13----------|---------13-11-10----10-|
|------------------------|------------------12----|
|------------------------|------------------------|
|------------------------|------------------------|
|------------------------|------------------------|
|
| W                        W
|------------------------|------------------------|
|------------------------|------------------------|
|------------------------|------------------------|
|------------------------|------------------------|
|------------------------|------------------------|
|------------------------|------------------------|


  Gm
  E  E  E  E  E E   Q    a  E  H..
|----3-----3--3-3---2--|-2s=3------------------||
|----3-----3--3-3---2--|-2s=3------------------||
|----3-----3--3-3---2--|-2s=3------------------||
|----------------------|-----------------------||
|----------------------|-----------------------||
|----------------------|-----------------------||
|
| E  E  E  E  Q     Q       H           H
|----------------------|-----------------------||
|---11-10----------10--|---11\-----------------||
|---------12-11--------|-----------------------||
|----------------------|-----------------------||
|----------------------|-----------------------||
|----------------------|-----------------------||
|
| Gtr I
| Q     E  Q    Q.         +Q       E Q   Q.
|----------3-----------|--------------3--------||
|------^3-------3------|---(3)-----^3-----3----||
|------^3--------------|-----------^3----------||
|------^5--------------|-----------^5----------||
|----------------------|-----------------------||
|----------------------|-----------------------||


 Outro
  Gm
  Gtr I
  Q    E Q  Q.        +Q    E Q  Q.
|--------3--------||----------3--------|
|-----^3----3-----||o-(3)--^3----3-----|
|-----^3----------||-------^3----------|
|-----^5----------||-------^5----------|
|-----------------||o------------------|
|-----------------||-------------------|
|
| Gtr IV
| TP           TP      TP           TP
| H.           Q       H.           Q
|-----------------||-------------------|
|-----------------||o------------------|
|-----------------||-------------------|
|-----------------||-------------------|
|-----------------||o------------------|
|-3------------2--||---3------------5--|


  +Q    E Q  Q.      +Q    E Q  Q.      5x
|---------3--------|---------3----------||
|-(3)--^3----3-----|-(3)--^3----3------o||
|------^3----------|------^3------------||
|------^5----------|------^5------------||
|------------------|-------------------o||
|------------------|--------------------||
|
|  TP           TP    TP           TP
|  H.           Q     H.           Q    5x
|------------------|--------------------||
|------------------|-------------------o||
|------------------|--------------------||
|------------------|--------------------||
|------------------|-------------------o||
|--6------------5--|--3------------2----||
Comments