Parokya Ni Edgar - Maniwala Ka Sana Chords & Tabs

 

Maniwala Ka Sana Chords & Tabs

Parokya Ni Edgar Chords & Tabs

Version: 2 Type: Tab 0 ratings
1 star 2 stars 3 stars 4 stars 5 stars
comments

Maniwala Ka Sana Tab

song: maniwala ka sana
band: parokya ni edgar
tabbed by jeffrey h.(y2jc_28@yahoo.com)& glen b.(ycool2cool@yahoo.com)

[ Tab from: http://www.guitartabs.cc/tabs/p/parokya_ni_edgar/maniwala_ka_sana_tab_ver_2.html ]
filler during intro 
e ----12---12---12---12--------12---12---12---12--------13---13---13---13--------15---15---15---15---15-----------------------------------------
b ----13---13---13---13--------13---13---13---13--------13---13---13---13--------15---15---15---15---15-----------------------------------------
g ----12---12---12---14--------14---14---14---14------------------------------------------------------------------------------------------------
d ----------------------------------------------------------------------------------------------------------------------------------------------
a ----------------------------------------------------------------------------------------------------------------------------------------------
e ---------------------------------------------------------------------------------------------------------------------------------------------- 
solo(effects: chorus distortion)  
e -----------------------------------------------------------------------7---8--8\10--8--7------------------------------------------------------
b ---5--5--6------2--0------------------------------------------------8----------------------8\10--8--------------------------------------------
g -------------7----------0--2----2--0--2--2\3--2-------------7-----7---------------------------------10--7\9--7--5-----------------------------
d -----------------------------------------------------3----5\7---------------------------------------------------------------------------------
a ----------------------------------------------------------------------------------------------------------------------------------------------
e ---------------------------------------------------------------------------------------------------------------------------------------------- 
 
e -------------------------------------------------------------------------------8--7--8-------------------10-----------10-----------------------
b ---------------------------------------6--6--5--6----5\6----6--6----8\10-----------10--8----8--10-----10(b)-------10(b)--8----8----------------
g -------5--4--5--5\7---4--5--7--7---------------7-------7-----------------------------------9--------------------------------------9------------
d ---7-------------------------------------------------------------------------------------------------------------------------------------------
a -----------------------------------------------------------------------------------------------------------------------------------------------
e ----------------------------------------------------------------------------------------------------------------------------------------------- 
that's all.
  
Comments