Parokya Ni Edgar - Mang Jose Chords & Tabs

 

Mang Jose Chords & Tabs

Parokya Ni Edgar Chords & Tabs

Version: 2 Type: Tab 0 ratings
1 star 2 stars 3 stars 4 stars 5 stars
comments

Mang Jose Tab

Mang jose
Parokya ni edgar
Tabbed by: lester de dios
E-mail: lord_lestermuse@yahoo.com



Intro:
-----------------------|------------------------------|
-----------------------|------------------------------|
-----------------------|------------------------------|
--7-----9-----10-----3-|--5-----7-----9----7-----5----|
--7-----9-----10-----3-|--5-----7-----9----7-----5----|
--5-----7-----8------1-|--3-----5-----7----5-----3----|
[ Tab from: http://www.guitartabs.cc/tabs/p/parokya_ni_edgar/mang_jose_tab_ver_2.html ]
verse:
----------|-----------|-----------|------------|
----------|-----------|-----------|------------|
----------|-----------|-----10----|------9-----|
--7-------|---10------|-----10----|------9-----|
--7-------|---10------|-----8-----|------7-----|
--5-------|---8-------|-----------|------------|
tuwing               dilim              naghahasik            lagim        
sasapit.....                                na ng

ANG MGA KAAWAY NG ATING  TAGAPAG LIGTAS
LAHAT SILAY NAG SISILABAS
PAGSAPIT NG DILIM, WALA KANG MAKIKITA
KUNDI ANG KANILANG MGA MATA
NA NAKAKATAKOT, LALO NA KUNG COLOR YELLOW
MATATAKOT LAHAT, KAHIT NA MGA MULTO
TULONG
TULONG
SAKLOLO
KAILANGAN KO NG TULONG MO
MANG JOSE
MANG JOSE
ANG SUPER HERO NA PWEDENG ARKILAHIN
MANG JOSE
PARANG SI DAIMOS DIN
NGUNIT PAGKATAPOS AY BIGLA KANG SISINGILIN
MANG JOSE


Hindi pa yan kumpleto.. kasi hanggang jan lang ang kaya ko... isa lang akong
beginner.... Dagdag-bawas nyo nalang kung gusto nyo...
Comments