Parokya Ni Edgar - Mang Jose Chords & Tabs

 

Mang Jose Chords & Tabs

Parokya Ni Edgar Chords & Tabs

Version: 2 Type: Bass Tab 0 ratings
1 star 2 stars 3 stars 4 stars 5 stars
comments

Mang Jose Bass Tab

elow guys.. this is my first tab.. so bare with me!! hahaha...
mang jose by parokya ni edgar
tabbed by: aldrin juco
mail me for comments hehehe: alj_tmac1@yahoo.com [pa-add na rin sa friendster! hehehehe!]
paki rate nmn oh.. plss... pinagpaguran ko toh eh.. hehehe...

tip: use pick for faster struck..

im very sure about this tab.. i think.. hehehe.. 
intro:
|------------------------------------------------|
|------------------------------------------------|
|--8-8-8-8-8-8-8--11-11--12-12-------------------|
|-------------------------------6-6-6-6-6-6-6-6--|


|------------------------------------------------|
|------------------------------------------------|
|-----------------6-6--8-8-----------------------|
|--4-4-4-4-4-4-4------------8-8-8-8-8-8-8-8------|
(repeat)

verse:
|------------------------------------------------|
|------------------------------------------------|
|--7-7-7-7-7-7-7-7-------------------------------|
|-------------------2-2-2-2-2-2-2-2--------------|


|------------------------------------------------|
|------------------------------------------------|
|--5-5-5-5-5-5-5-5-------------------------------|
|-------------------5-5-5-5-5-5-5-5--------------|
(repeat mga tsong!)
then...

|------------------------------------------------|
|------------------------------------------------|
|--7-7-7-7-7-7--9-9--11-11-----------------------|
|---------------------------2-2-2-2-2-2-2-2------|


|------------------------------------------------|
|------------------------------------------------|
|--5-5-5-5-5-5--7-7--9-9-------------------------|
|---------------------------5-5-5-5-5-5-5-5------|
(repeat din toh!)


chorus/pre-chorus:

|------------------------------------------------|
|------------------------------------------------|
|--7-7-7-7-7-7-7-7-------------------------------|
|-------------------2-2-2-2-2-2-2-2--------------|

[ Tab from: http://www.guitartabs.cc/tabs/p/parokya_ni_edgar/mang_jose_btab_ver_2.html ]
|------------------------------------------------|
|------------------------------------------------|
|--5-5-5-5-5-5-5-5-------------------------------|
|-------------------5-5-5-5-5-5-5-5--------------|
(repeat 4 times to cover chorus and pre-chorus)

-then intro ulit!
verse II:

|------------------------------------------------|
|------------------------------------------------|
|--7-7-7-7-7-7-7-7-------------------------------|
|-------------------2-2-2-2-2-2-2-2--------------|


|------------------------------------------------|
|------------------------------------------------|
|--5-5-5-5-5-5-5-5-------------------------------|
|-------------------5-5-5-5-5-5-5-5--------------|
(repeat)

|------------------------------------------------|
|------------------------------------------------|
|--7-7--7-7--7-7--7-7----------------------------|
|----------------------2-2--2-2--2-2--2-2--------|


|------------------------------------------------|
|------------------------------------------------|
|--5-5--5-5--5-5--5-5----------------------------|
|----------------------5-5--5-5--5-5--5-5--------|
(repeat)
-then churus/pre-churus [hehehe!]

bridge & solo:

|------------------------------------------------|
|------------------------------------------------|
|--7-7-7-7-7-7-7-7-------------------------------|
|-------------------2-2-2-2-2-2-2-2--------------|


|------------------------------------------------|
|------------------------------------------------|
|--5-5-5-5-5-5-5-5-------------------------------|
|-------------------5-5-5-5-5-5-5-5--------------|


|------------------------------------------------|
|------------------------------------------------|
|--8-8-8-8-8-8-8--11-11--12-12-------------------|
|-------------------------------6-6-6-6-6-6-6-6--|


|------------------------------------------------|
|------------------------------------------------|
|-----------------6-6--8-8-----------------------|
|--4-4-4-4-4-4-4------------8-8-8-8-8-8-8-8------|

-then chorus x2

then..

|--------------------|
|--7-7-7--5--7-------|
|--------------------|
|--------------------|


hi! to my friends back in the philippines..
i love you guys!! mis u all!
Comments