Parokya Ni Edgar - Kaleidoscope World Chords & Tabs

 

Kaleidoscope World Chords & Tabs

Parokya Ni Edgar Chords & Tabs

Version: 5 Type: Tab 0 ratings
1 star 2 stars 3 stars 4 stars 5 stars
comments

Kaleidoscope World Tab

   
Song : Kaleidoscope World
Artist Parokya ni Edgar feat Francis M.
Album : Inuman Sessions Volume 1
Tabbed by : Michael Licarte (hub_125@yahoo.com)

Intro: (solo)

e|---15-15---------------------------------------------------|
B|---15-----10h12p10-----------------------------------------|
G|--------------------------12-------------12---------------|
D|-------------------12h-14----------12h14------------------|
A|------------------------------12h14------------------------|
E|-----------------------------------------------------------|

guitar 1 : ( G - Am - Bm - Am ) 2x but not last chord play C

guitar 2 : Do this
                 G
e|------------------------------------------------------------|
B|--------------------------12-------------------------------|
G|--------12-------14-----------------12h14p12-12h14p12----12-|
D|-12h14----12h14----12h14-----12h14-------------------12----|
A|------------------------------------------------------------|
E|------------------------------------------------------------|

e|-----------------------15s17-15----------------------------|
B|-----------------12-15-----------12-12/17--15--------------|
G|-------14-12-14-------------------------------------------|
D|-12h14----------------------------------------------------|
A|-----------------------------------------------------------|
E|-----------------------------------------------------------|

Guitar 1 : ( G - Am - Bm - Am ) 2x but not last chord play C

Guitar 2: Darius' PArt
[ Tab from: http://www.guitartabs.cc/tabs/p/parokya_ni_edgar/kaleidoscope_world_tab_ver_5.html ]
   G       Am      Bm      Am
e|--3-------5-------7-------5---5h7--------------------------|
B|--3-------5-------7-------5-------5------------------------|
G|-4-------5-------7-------5--------------------------------|
D|----------------------------------------------------------|
A|-----------------------------------------------------------|
E|-----------------------------------------------------------|

   G       Am      Bm      C
e|--3-------5-------7-------8--8h10--------------------------|
B|--3-------5-------7-------8-------8------------------------|
G|-4-------5-------7-------9--------------------------------|
D|----------------------------------------------------------|
A|-----------------------------------------------------------|
E|-----------------------------------------------------------|


Chorus : ( G5 - D5 - B5 - C5 ) repeat 2x then ( G5 - D5 - C5 )

(after chorus)

e|-----------------------------------------------------------|
B|--------------------------12-13-15-17---------------------|
G|--------12-------14-12-14--------------12--12h14-----------|
D|-12h14----12h14-------------------------------------------|
A|-----------------------------------------------------------|
E|-----------------------------------------------------------|

e|--------------------------------------15-------------------|
B|--------------------------12-13-15-17----15h17-15----------|
G|-------12-------14-12-14----------------------------------|
D|-12h14----12h14-------------------------------------------|
A|-----------------------------------------------------------|
E|-----------------------------------------------------------|


Thats All for now.. submit ko nalang ung Adlib riffs pag may time ako..
Thank you nga pala sa mga friends ko.. mga Taga Casimiro Townhomes..
Mapua Friends, AMA Friends.. at sa Uie koh

Parokya ni Edgar Rules!!!!!!! Oh Yeah!!!!!
Comments