Parokya Ni Edgar - Halina Sa Parokya Chords & Tabs

 

Halina Sa Parokya Chords & Tabs

Parokya Ni Edgar Chords & Tabs

Version: 1 Type: Chords

Halina Sa Parokya Chords

   
Parokya Ni Edgar
Halina Sa Parokya
Tabbed by `dgonz_

Mga bata, 4:20 na. Oras na para sa Halina Sa Parokya.
Intro : B A B A B A B F#

Lead Guitar
e|----12h14---14-12-----------------------------|
b|--12------12------14-15-14-12-----------------|
g|------------------------------13-14-13-11-14~~|
d|----------------------------------------------|
a|----------------------------------------------|
e|----------------------------------------------|

Rythym Guitar
     B    A    E
e|---x----x----x----x-------|
b|---x----x----x----x-------|
g|---4----2----x----x-------|
d|---4----2----2----4-------|
a|---2----0----2----4-------|
e|---x----x----0----2-------|
[ Tab from: http://www.guitartabs.cc/tabs/p/parokya_ni_edgar/halina_sa_parokya_crd.html ]
--V1 chords: B-A
B         A        B        A
Kung madilim at bumubuhos ang ulan
B         A        B        A
Wag kang magalala pagkat may lunas tayo dyan
B       A          B       A   F#
Abangan mo ang mahiwagang dyip
B     A       B    E-F#
Iabot ang bayad na nakakasilaw mong ngiti

--Chorus: B-A-B-E-F#
B      A
Halina sa parokya
B   E-F#    B     A       B    E-F#
Makibisita kahit nakaupo ka lang, o ang saya
B     A       B    E-F#
Bawat araw ay parang bertdey at pasko
B     A       B    E-F#
Dito lang sa parokya mararanasan to

(Repeat Intro)
(whistling chords: B E F#)

V2(same chords as whistling part)

Nanjan si Chits, si Dindin din, si Bu,
Si Dar, si Gab, si Vinch 

(Repeat Chorus)
(Repeat Intro)

Outro (hindi ko pa natapos)

'Yon Lang.