Parokya Ni Edgar - Gitara Chords & Tabs

 

Gitara Chords & Tabs

Parokya Ni Edgar Chords & Tabs

Version: 1 Type: Tab 0 ratings
1 star 2 stars 3 stars 4 stars 5 stars
comments

Gitara Tab

   
Gitara
Halina Sa Parokya
Parokya ni Edgar
by: fritz ortega
    bhrixxe@hotmail.com
	august 23, 2005
	
 
Madali lang to mga tol!
Eto tung sa tingin ko na intro niya...
iapply nyo na rin tong mga chords na to throughout the song!
tapos gandahan niyo na lang yung timing ng tap tsaka yung pag-pluck.. tsaka the best
kung papakinggan niyo yung cd!!!


Intro:

	G
e|------------------------------------|
B|---3---3---3----3----3----3---------|
G|---2---0-T-2----0----2----0--T------|
D|---------A-------------------A------|
A|---------P-------------------P------|
E|---3---3---3----3----3----3---------|
	
	Em/C
e|------------------------------------|
B|---3---3---3----3----3----3---------|
G|---2---0-T-2----0----2----0--T------|
D|---------A-------------------A------|
A|---2---2-P-2----2----2----2--P------|
E|---0---0---0----0----0----0---------|

	C9
e|------------------------------------|
B|---3---3---3----3-----3----3--------|
G|---2---0-T-2----0-----2----0-T------|
D|---------A-------------------A------|
A|---3---3-P-3----3-----3----3-P------|
E|------------------------------------|

	Dsus-D-D9-D
e|---3---2---0---2--------------------|
B|---3---3---3---3----T---------------|
G|---2---2---2---2----A---------------|
D|---0---0---0---0----P---------------|
A|------------------------------------|
E|------------------------------------|

(Repeat)

verse1:
[ Tab from: http://www.guitartabs.cc/tabs/p/parokya_ni_edgar/gitara_tab.html ]
 G			   Em/C
Bakit pa kailangang magbihis?
 C9                   Dsus-D-D9-D
Sayang din naman ang porma
 G                   Em/C
Lagi lang namang may sisingit

 C9                Dsus-D-D9-D
Sa tuwing tayo'y magkasama

(gayahin niyo na lang..)

Verse 2:
Bakit pa kailangan ng rosas
Kung marami namang magaalay sayo
Uupo na lang at await
Maghihintay ng pagkakataon

Ref:
 Am7                     D- Dsus
Hahayaan/Pagbibigyan na lang silang
       G            D/F#   Em 
magkandarapa na manligaw sayo
 Am7         D- Dsus
Idadaan na lang kita sa 
   G     D/F#  Em 
awiting kong ito
  
 Am7             D     G-D/F#-Em           
Sabay ang tugtog ng gitara
 Am7        D     
Idadaan nalang sa gitara

(Instrumental)

(Verse 3)
Mapapagod lang sa kakatingin
Kung marami namang nakaharang
Aawit nalang at magpaparinig 
ng lahat ng aking nadarama

(Repeat refrain...)
Instrumental
(repeat refrain...)


astig tong kantang 2 xe para to sa mga gitarista na tulad natin!!!! hehehe... lupit
talaga ng parokya!!!! greet ko lang si angeline ng perpz-bnan tsaka si dhey ng perpz-
gma... tska mabuhay lahat ng yfc sa buong mundo... irate nyo naman 2!!! tska sana itab
ng mga magagaling yung instrumental!!! hehehe... sila walter dela cruz/john santos!..
parokya da best!I love you rg!
Comments