Parokya Ni Edgar - Alumni Homecoming Live Acoustic Chords & Tabs

 

Alumni Homecoming Live Acoustic Chords & Tabs

Parokya Ni Edgar Chords & Tabs

Version: 1 Type: Tab 0 ratings
1 star 2 stars 3 stars 4 stars 5 stars
comments

Alumni Homecoming Live Acoustic Tab

   
Alumni Homecoming

Parokya ni Edgar

|---------------------------------------------------|
|   '&'                                             |
|    #                                              |
|    #     Tabbed by Don Michael Acelar De Leon     |
|   _#_    Sixteen na ako!!!                        |
|  ( # )                                            |
|  / O \   donmichael001@yahoo.com                  |
| ( === )                                           |
|  `---'                                            |
|---------------------------------------------------|

Standard Tuning, |EADGBE|, 440 mHz

Guitar 1--Rhythm, Steel String Acoustic
Guitar 2--Lead, Electric, Dirty Distortion

Intro

Guitar 1

"Napatunganga nung bigla kitang nakita..."
	    
E|-0--0--2--2--|
B|-2--0--2--3--|
G|-2--1--2--2--|
D|-2--2--4--0--|
A|-0--2--4-----|
E|(0)-0--2-----|

"Pagkalipas ng mahabang panahon..."

E|-0--0--2--2h3-2--|
B|-2--0--2--3-3-3--|
G|-2--1--2--2-2-2--|
D|-2--2--4--0------|
A|-0--2--4---------|
E|(0)-0--2---------|

"Napaibig mo ako..."

E|-0-----0------0h2-2-2-2--|
B|---3-----3----3---3-3-3--|
G|-----2-----2--2---2-2-2--|
D|-------------------------|
A|-------------------------|
E|-------------------------|

*Enter Bass and Drums*

"Mula umaga..." 

Repeat Verse Chords

Chorus

Guitar 1--Do verse chords

Guitar 2

"Wala nang nagawa..."

E|--------------------------|
B|--------------------------|
G|----14-x-/-9-x-/-11-x-/-7-|
D|----14-x-/-9-x-/-11-x-/-7-| repeat
A|----12-x-/-7-x-/--9-x-/-5-|
E|-//-----------------------|


"Panay ang plano..."

Guitar 1 does verse chords

"Tadhana nga naman, naging mag-partner tayo..."

Guitar 2

E|--------------------------------|
B|--------------------------------|
G|-14-14-xx--9-9-xx-11-11-/-7-7-7-|
D|-14-14-xx--9-9-xx-11-11-/-7-7-7-| *do with occasional breaks*
A|-12-12-xx--7-7-xx--9--9-/-5-5-5-|
E|--------------------------------|

"Eksakto na ang timing..."

E|------------------------------------------------------------|
B|------------------------------------------------------------|
G|-x-x-9-x-x-9-x-9------x-x-11-x-x-11-x-11----x-x-7-x-x-7-x-7-|
D|-x-x-9-x-x-9-x-9-(2x)-x-x-11-x-x-11-x-11----x-x-7-x-x-7-x-7-|
A|-x-x-7-x-x-7-x-7------x-x--9-x-x--9-x--9----x-x-5-x-x-5-x-5-|
E|------------------------------------------------------------|

"Wala akong nasabi..."

E|---------------|
B|---------------|
G|-7-x-7-x-7-x-7-|
D|-7-x-7-x-7-x-7-| *repeat as necessary*
A|-5-x-5-x-5-x-5-|
E|---------------|

Solo

Guitar 1--Do verse chords for first part of solo

Guitar 2

E|--------------------------------------|
B|--------------------------------------|
G|----------------9----9-11p9----9-11~~-|
D|-7---7---7-9/11---11--------11--------|
A|---7---7------------------------------|
E|--------------------------------------|

E|---------12--10--9-10-----|
B|-10-9-10--------------10/-| *emphasize slide*
G|--------------------------|
D|--------------------------|
A|--------------------------|
E|--------------------------|

E|-17-16----------------|
B|-------17-------------|
G|----------16/14/13-14-|
D|----------------------|
A|----------------------|
E|----------------------|
[ Tab from: http://www.guitartabs.cc/tabs/p/parokya_ni_edgar/alumni_homecoming_live_acoustic_tab.html ]
E|----------------------------------------------------|
B|-------------------------------14-14--17b19-17b19~~-|
G|-------------14/13/14h16-p14h16---------------------|
D|-14-16p14h16----------------------------------------|
A|----------------------------------------------------|
E|----------------------------------------------------|

*Chord Progression Change*

  F#m		  E		    D
E|---------------------------------------------------------------------------------------|
B|----------------------------------------------------------17b19~~-17b19-17b19r17-15~~~-|
G|-----------13~~-14~~-13-14-16--16b18~~-16b18-16b18r16-14~------------------------------|
D|-14h16-16~~----------------------------------------------------------------------------|
A|---------------------------------------------------------------------------------------|
E|---------------------------------------------------------------------------------------|

   F#m 			         E				     D 	
E|----------------------17---------------------------------------------------------------|
B|-14-15-14-17-14-15-14------------------------------------------------------------------|
G|---------------------------------------13h14-13----------------------------------------|
D|---------------------------14----14-16----------16p14-12-11h12h14--12~~-11~~-12~~------|
A|------------------------------16-------------------------------------------------------|
E|---------------------------------------------------------------------------------------|
   Dm	
E|----------------------|
B|----------------------|
G|----------------------|
D|-14h15-14h15-17b19~---|
A|----------------------|
E|----------------------|



"Napatunganga.."

Guitar 1

E|-00-x-00-x-22--2-3-2--|
B|-22-x-00-x-22--3-3-3--|
G|-22-x-11-x-22--2-2-2--|
D|-22-x-22-x-44--0------| *occasional breaks*
A|-00-x-22-x-44---------|
E|-00-x-00-x-22---------|

"Pagkalipas ng mahabang panahon..."

Guitar 2

E|------------------------|-(7)-------|
B|-9h10-9-----------------|-10--------|
G|---------11-9--7-6-7--9-|--9--------| *arpeggio plucking until...*
D|------------------------|--7--------|
A|------------------------|-----------|
E|------------------------|-----------|

"At nang ikaw ay nilapitan..."

Crescendo (gradual increase of intensity/volume)

P.M..............................
E|--------------------------------|
B|--------------------------------|
G|---------9------11-------7------|
D|-7-------9-(8x)-11-(8x)--7-(8x)-| 
A|-7-(8x)--7-------9-------5------|
E|-5------------------------------|

"Ng iyong mga anak mula sa pangit mong asawa!"

E|----x-----x-----x------x-----|
B|----x-----x-----x------x-----|
G|-7--7/9--9/11-11/13--13/14---|
D|-x--x-----x-----x------x-----| 
A|-5--5/7--7/9---9/11--11/12---|
E|-----------------------------|

Last Chorus

Repeat Verse Chords

Played live at the BsP Acoustic Band Concert, July 27, 2004

My warmest thanks to:

IV-SIR ISAAC NEWTON S Y 2004-2005

AFS INTERCULTURAL PROGRAMS PHILIPPINES

REPUBLIC OF THE PHILIPPINES
Division of City Schools of Makati
Mayor Jejomar C Binay
Ms Elena R Ruiz

MAKATI SCIENCE HIGH SCHOOL 
Eric Ebia, Jr 
Hanz Billy John Magat
Francis Vincent Co
Jodessa Piloton
Reinzy Colle
John Santos
Camille Vanessa Vidad
Maria Christina Santiago Reyes

Dedicated to...

Eric Ebia, Jr, Francis Vincent Co, and Hanz Billy John Magat
(The best instrumentalists I have ever played with!)


CopyrightŪ 2004 by Don Michael Acelar De Leon. All Rights Reserved.
Comments