Parokya Ni Edgar - Akala Mo Yata Chords & Tabs

 

Akala Mo Yata Chords & Tabs

Parokya Ni Edgar Chords & Tabs

Version: 1 Type: Tab 0 ratings
1 star 2 stars 3 stars 4 stars 5 stars
comments

Akala Mo Yata Tab

   
AKALA MO YATA
by Parokya ni Edgar

Tuning: Standard
Intro:
      A         C#m        D          E
e|-----0----------4---------2---------0-----0-|
b|-2------2----------5----3-3---3--0----0--0--|
g|----2----0----6----6---2------2----1----1---|
d|---2---------6-6------0---0--0--------2-----|
a|-0-----0----4-----4-------------------------|
e|---------------------------------0----------|
  
     A          C#m          D          E
e|------0----------6------------2-------0-|
b|-2--------2------5--5------3--3--3----0-|
g|----2---2------6-----6----2-2-----2---1-|
d|---2-----2----6---------0-------0-----2-|
a|-0---0------4------4------------------2-|
e|--------------------------------------0-|

Verse:
Akala mo siguro na ako'y nagbibiro
     A          C#m          D          E
e|------0----------6------------2---------0-----0-|
b|-2--------2------5--5------3--3--3---0----0--0--|
g|----2---2------6-----6----2-2-----2----1----1---|
d|---2-----2----6---------0-------0---------2-----|
a|-0---0------4------4----------------------------|
e|-------------------------------------0----------|

[ Tab from: http://www.guitartabs.cc/tabs/p/parokya_ni_edgar/akala_mo_yata_tab.html ]
Nung aking aminin na ang puso ko'y sa'yo
    A          C#m          D          E
e|------0----------6------------2----------0----|
b|-2--------2------5--5------3--3--3------0---0-|
g|----2---2------6-----6----2-2-----2----1--1---|
d|---2-----2----6---------0-------0-----2----2--|
a|-0---0------4------4--------------------------|
e|-------------------------------------0--------|


Akala mo yata na ako'y nagpapatawa
     A          C#m          D          E
e|------0----------6------------2---------0-----0-|
b|-2--------2------5--5------3--3--3---0----0--0--|
g|----2---2------6-----6----2-2-----2----1----1---|
d|---2-----2----6---------0-------0---------2-----|
a|-0---0------4------4----------------------------|
e|-------------------------------------0----------|


Nung aking sabihin na minamahal kita
   A          C#m          D          E
e|------0----------6------------2----------0----|
b|-2--------2------5--5------3--3--3------0---0-|
g|----2---2------6-----6----2-2-----2----1--1---|
d|---2-----2----6---------0-------0-----2----2--|
a|-0---0------4------4--------------------------|
e|-------------------------------------0--------|


Tama ang hinala mo...
     Bm      C#m   D
e|-----2------4--------|
b|----3---3---5--------|  
g|---4--4-----6--------|  
d|--4----4----6--------|
a|-2----------4---(p5)-| -- honestly, i'm slightly confused kung D nga un
e|---------------------|  or C#,.. but most likely, D nga un!...

legend: 
p -- pull the string
		                          EnjoY!!!
---------------------------------End-----------------------------------------
Glory to God!!!


    -whatever9-
    tracyaces1@yahoo.com
Comments