Parliament Funkadelic - Maggot Brain Chords & Tabs

 

Maggot Brain Chords & Tabs

Parliament Funkadelic Chords & Tabs

Version: 1 Type: Tab 0 ratings
1 star 2 stars 3 stars 4 stars 5 stars
comments

Maggot Brain Tab

Funkadelic-Maggot Brain
It's not all here and you have to listen for the right time


e|------------------------------------------------------------------|
B|-15b---17b---15b--15p12-15p12------------------------------15-----|
G|--------------------------------14p12-14---11-12-14-15-15b----14--|
D|------------------------------------------------------------------|
A|------------------------------------------------------------------|
E|------------------------------------------------------------------|

e|------------------------------------------------------------------|
B|-----------------------------------------------15b---17b---15b----|
G|-14p12-14--------12p14-14b-12-12----------------------------------|
D|-----------12h14-----------------14---------12--------------------|
A|-------------------------------------12h14------------------------|
E|------------------------------------------------------------------|

e|------------------------------------------------------------------|
B|-15p12-15p12------------------------------------------------------|
G|--------------14p12-14-15h14-15h14-15h14-12-14-14-12--------------|
D|-----------------------------------------------------14-12-14-----|
A|------------------------------------------------------------------|
E|------------------------------------------------------------------|

e|------------------------------------------------------------------|
B|------------------------------------------------------------------|
G|-12-14-12----------12-14br-12----------14-12h14-12----------------|
D|----------14-12-14--------------12bh14----------------------------|
A|------------------------------------------------------------------|
E|------------------------------------------------------------------|

e|------------------------15----------------------------------------|
B|-12h15--15b-15b-15b-15b----15br---12-15b-12-----------------------|
G|--------------------------------------------14---12--14br---------|
D|----------------------------------------------------------12h14---|
A|------------------------------------------------------------------|
E|------------------------------------------------------------------|
[ Tab from: http://www.guitartabs.cc/tabs/p/parliament_funkadelic/maggot_brain_tab.html ]
e|------------------------------------------------------------------|
B|----------------------------------------------------------------15|
G|-------------12------------------14b-14b--14b-14b--14b-14b--14b---|
D|-12-11-12-14----14-12-14---12h14----------------------------------|
A|------------------------------------------------------------------|
E|------------------------------------------------------------------|

e|------------------------------------------------------------------|
B|-----------------------------------------------------------15b-15b|
G|-14b---12h14-12-14b-12----------------------12-11-14----12--------|
D|-----------------------14-------12-11-12-14-----------------------|
A|--------------------------12-14-----------------------------------|
E|------------------------------------------------------------------|

e|----------------------------------------12------------------------|
B|-15b-15b--12h15p12------------15b--15bv----15-12-----------12-----|
G|-------------------14-12-12-0--------------------14p12--14----12--|
D|------------------------------------------------------------------|
A|------------------------------------------------------------------|
E|------------------------------------------------------------------|

e|------------------------------------------------------------------|
B|------------------------------------------------------------------|
G|-------12-14b-------12-14br-------12-14b-------12-14br-------12-14b
D|-12h14--------12h14---------12h14--------12h14---------12h14------|
A|------------------------------------------------------------------|
E|------------------------------------------------------------------|

e|------------------------------------------------------------------|
B|------------------------------------------------------------------|
G|-12-----------12-14p12-----------12-14p12----12-14-14p12----------|
D|----14--12h14----------14--12h14----------14-------------14-------|
A|------------------------------------------------------------------|
E|------------------------------------------------------------------|

e|------------------------------------------------------------------|
B|------------------------------------------------------------------|
G|-12h14p12-----------------------1211-11--------------------------|
D|----------14--------12-11/12-14----------12-----------------------|
A|--------------12h14-------------------------14--------------------|
E|------------------------------------------------------------------|


Comments