Parliament - Mothership Connection Chords & Tabs

 

Mothership Connection Chords & Tabs

Parliament Chords & Tabs

Version: 2 Type: Bass Tab 0 ratings
1 star 2 stars 3 stars 4 stars 5 stars
comments

Mothership Connection Bass Tab

   
----------------------------------------
***Mothership Connection---Parliament*** 
----------------------------------------


RIFF A:
[ Tab from: http://www.guitartabs.cc/tabs/p/parliament/mothership_connection_btab_ver_2.html ]
G|------------------------------------------------------|
D|--------------------------------------4---------------|
A|--6--4--4--6-----4--6-----4--4--4--6-----7--6--6--4---|
E|--------------6--------6------------------------------|


RIFF B:

G|----------------------------|
D|----------------------------|
A|--------------2--2--2h5--4--|
E|--2--0--2--2----------------|






transcribed by max asare

Comments