Parliament - Give Up The Funk Chords & Tabs

 

Give Up The Funk Chords & Tabs

Parliament Chords & Tabs

Version: 1 Type: Bass Tab 0 ratings
1 star 2 stars 3 stars 4 stars 5 stars
comments

Give Up The Funk Bass Tab

   
----------------------------------------------------------------
***Give Up The Funk (Tear The Roof Off The Sucker)-Parliament***
----------------------------------------------------------------


RIFF A:

G|--------9--9--9--7--------------9--9--9--7-------------------------
D|--7--9--------------9-----7--9--------------9----------------------
A|-----------------------7-----------------------7-------------------
E|--------------------------------------------------0--X--X--3--0----
[ Tab from: http://www.guitartabs.cc/tabs/p/parliament/give_up_the_funk_btab.html ]
G|--------9--9--9--7--------9--9--7------------------------------9--9--9--7
D|--7--9--------------9--------------9---------------------7--9------------
A|-----------------------7---------------7---------------------------------
E|------------------------------------------0--X--X--3--0------------------

G|--------------9-----------------------9--9--9--7--------------------|
D|--9-----7--9--------------------7--9--------------9-----------------|
A|-----7-----------------------------------------------7--7-----------|
E|-----------------0--X--X--3--0-----------------------------5--7--0--|
                                                                               

RIFF B:

G|-----------------------------|  
D|--2-----------2--------------|
A|-----4--5--------5--4--5-----|
E|-----------0--------------0--|

transcribed by max asare

Comments