Parliament - Dr Funkenstein Chords & Tabs

 

Dr Funkenstein Chords & Tabs

Parliament Chords & Tabs

Version: 1 Type: Bass Tab 0 ratings
1 star 2 stars 3 stars 4 stars 5 stars
comments

Dr Funkenstein Bass Tab

Parliament Funkadelic
"Dr Funkenstein"


Intro/Bridge
G|----------------------------
D|----------------------------
A|-------------3-----3-5-----
E|-1--3--3-5-3---3h5------1-3-
 
[ Tab from: http://www.guitartabs.cc/tabs/p/parliament/dr_funkenstein_btab.html ]
Main Riff
G|-------------5--------------------
D|----------------------------------
A|-------5-3-2---2-3-------/5-3-2-3-
E|-3-5-3-------------3-5-3----------



we love to funk you funkenstein
Comments