Parliament - Chocolate City Chords & Tabs

 

Chocolate City Chords & Tabs

Parliament Chords & Tabs

Version: 2 Type: Bass Tab 0 ratings
1 star 2 stars 3 stars 4 stars 5 stars
comments

Chocolate City Bass Tab

Parliament
"Chocolate City" (1975) 
Bass tab by Stephen Fogarty, fogartys@msn.com 


Note: The guitar and bass do the same thing pretty much throughout the
whole verse part of the song except the guitar is an octave up.

Verse
[ Tab from: http://www.guitartabs.cc/tabs/p/parliament/chocolate_city_btab_ver_2.html ]
G-----------------------------------------------------
D---------------------3-3------------------------5-4-3.
A-3-5--5--3---3-5--5-------3-5--5--3----3-5--5-3------.
E-----------------------------------------------------

Chorus

Note: put on an envelope filter and any other effects you have lying
around. play these notes and slide around too.

G--------------------
D--------------12-14-
A--------12-14-------
E--12-15-------------


Comments