Parkway Drive - Pandora Chords & Tabs

 

Pandora Chords & Tabs

Parkway Drive Chords & Tabs

Version: 2 Type: Tab

Pandora Tab

   
Dropped B

INTRO
Guitar 1:
C#|----------------------------------------------------------------------|
G#|-10-10-6-6-8-8-5-5-10-10-6-6-8-8-5-5--6-6-3-3-5-5-1-1-6-6-3-3-5-5-1-1-| 
E |----------------------------------------------------------------------| 
B |----------------------------------------------------------------------| 
F#|----------------------------------------------------------------------| 
B |----------------------------------------------------------------------|
                             PLAY TOGETHER 2X
Guitar 2:
C#|----------------------------------------------------------------------|
G#|----------------------------------------------------------------------| 
E |----------------------------------------------------------------------| 
B |-0~-----------------------------------8~--------------10~-------------| 
F#|-0~-----------------------------------8~--------------10~-------------| 
B |-0~-----------------------------------8~--------------10~-------------|


Guitar 1:
C#|----------------------------------------------------------------------|
G#|-10-10-6-6-8-8-5-5-10-10-6-6-8-8-5-5--6-6-3-3-5-5-1-1-6-6-3-3-5-5-1-1-| 
E |----------------------------------------------------------------------| 
B |----------------------------------------------------------------------| 
F#|----------------------------------------------------------------------| 
B |----------------------------------------------------------------------|
                             PLAY TOGETHER 2X
Guitar 2:
C#|----------------------------------------------------------------------|
G#|----------------------------------------------------------------------| 
E |----------------------------------------------------------------------| 
B |------3---2---2p0------3---2---2p0-3-3--3---2---2p0-5-5--3---2---2p0--| 
F#|-0-0--------------0-0--------------1-1----1---1-----3-3----3---3------|
B |-0-0----0---0-----0-0----0---0----------------------------------------|

VERSE

Guitar 1:
C#|----------------------------------------------------------------------|
G#|----------------------------------------------------------------------| 
E |----------------------------------------------------------------------|
B |-777-333-000-333-000-----000---------000-222-333-555-333-222-333------|
F#|---------------------333-----333-333----------------------------------|
B |----------------------------------------------------------------------|
                            
Guitar 2:
C#|----------------------------------------------------------------------|
G#|----------------------------------------------------------------------| 
E |----------------------------------------------------------------------| 
B |-0~----------------10~----------------5---------------10~-------------|
F#|-0~----------------10~----------------5---------------10~-------------|
B |-0~----------------10~----------------5---------------10~-------------|

Guitar 1:
C#|----------------------------------------------------------------------|
G#|----------------------------------------------------------------------| 
E |----------------------------------------------------------------------|
B |-777-333-000-333-000-----000---------000-222-333-555-333-222-333------|
F#|---------------------333-----333-333----------------------------------|
B |----------------------------------------------------------------------|
                            
Guitar 2:
C#|----------------------------------------------------------------------|
G#|---------------------------------------------8~-------------------8~--|
E |-----------------------------------------------7~---------------7~----|
B |-0~----------------10~---------------------------5~-----------5~------|
F#|-0~----------------10~----------------0-0-0-----------5-5-5-----------|
B |-0~----------------10~----------------0-0-0-----------5-5-5-----------|

Guitar 1&2:   2X
C#|----------------------------------------------------------------------|
G#|----------------------------------------------------------------------|
E |---------7\-----------7\-----------7\---------------------------------|
B |-0-0-0---x----0-0-0---x----0-0-0---x----0-0-0-2-2-2-3-3-3-2-2-2-------|
F#|-0-0-0---5\---0-0-0---5\---0-0-0---5\---------------------------------|
B |-0-0-0--------0-0-0--------0-0-0--------------------------------------|

Verse 2

Guitar 1:
C#|----------------------------------------------------------------------|
G#|-10-10-6-6-8-8-5-5-10-10-6-6-8-8-5-5--6-6-3-3-5-5-1-1-6-6-3-3-5-5-1-1-| 
E |----------------------------------------------------------------------| 
B |----------------------------------------------------------------------| 
F#|----------------------------------------------------------------------| 
B |----------------------------------------------------------------------|

Guitar 2:
C#|----------------------------------------------------------------------|
G#|----------------------------------------------------------------------|
E |----------------------------------------------------------------------|
B |-0~----------------10~----------------3~---------------5----5-3-2~----|
F#|-0~----------------10~----------------3~-----------5-5-5--------------|
B |-0~----------------10~----------------3~-----------5-5-5--------------|

Guitar 1:
C#|----------------------------------------------------------------------|
G#|-10-10-6-6-8-8-5-5-10-10-6-6-8-8-5-5--6-6-3-3-5-5-1-1-6-6-3-3-5-5-1-1-| 
E |----------------------------------------------------------------------| 
B |----------------------------------------------------------------------| 
F#|----------------------------------------------------------------------| 
B |----------------------------------------------------------------------|

Guitar 2:
C#|----------------------------------------------------------------------|
G#|---------------------------------------------8~-------------------8~--|
E |-----------------------------------------------7~---------------7~----|
B |-0~----------------10~---------------------------5~-----------5~------|
F#|-0~----------------10~----------------3-3-3-----------5-5-5-----------|
B |-0~----------------10~----------------3-3-3-----------5-5-5-----------|

Guitar 1:
C#|----------------------------------------------------------------------|
G#|-10-10-6-6-8-8-5-5-10-10-6-6-8-8-5-5--6-6-3-3-5-5-1-1-6-6-3-3-5-5-1-1-| 
E |----------------------------------------------------------------------| 
B |----------------------------------------------------------------------| 
F#|----------------------------------------------------------------------| 
B |----------------------------------------------------------------------|
                             
Guitar 2:
C#|----------------------------------------------------------------------|
G#|----------------------------------------------------------------------| 
E |----------------------------------------------------------------------| 
B |------3---2---2p0------3---2---2p0-3-3--3---2---2p0-5-5--3---2---2p0--| 
F#|-0-0--------------0-0--------------1-1----1---1-----3-3----3---3------|
B |-0-0----0---0-----0-0----0---0----------------------------------------|

Guitar 3: Harmonising Guitar 1
C#|---8-8-5-5-6-6-3-3-8-8-5-5-6-6-3-3--5-5-1-1-3-3-0-0-5-5-1-1-3-3-0-0---|
G#|----------------------------------------------------------------------|
E |----------------------------------------------------------------------| 
B |----------------------------------------------------------------------| 
F#|----------------------------------------------------------------------| 
B |----------------------------------------------------------------------|
[ Tab from: http://www.guitartabs.cc/tabs/p/parkway_drive/pandora_tab_ver_2.html ]
Guitar 1:
C#|----------------------------------------------------------------------|
G#|-10-10-6-6-8-8-5-5-10-10-6-6-8-8-5-5--6-6-3-3-5-5-1-1-6-6-3-3-5-5-1-1-| 
E |----------------------------------------------------------------------| 
B |----------------------------------------------------------------------| 
F#|----------------------------------------------------------------------| 
B |----------------------------------------------------------------------|
                             
Guitar 2:
C#|----------------------------------------------------------------------|
G#|----------------------------------------------------------------------| 
E |----------------------------------------------------------------------| 
B |------3---2---2p0------3---2---2p0-3-3--3---2---2p0-5-----------------| 
F#|-0-0--------------0-0--------------1-1----1---1-----3-----------------|
B |-0-0----0---0-----0-0----0---0----------------------------------------|

Guitar 3: Harmonising Guitar 1
C#|---8-8-5-5-6-6-3-3-8-8-5-5-6-6-3-3--5---------------------------------|
G#|----------------------------------------------------------------------|
E |----------------------------------------------------------------------| 
B |----------------------------------------------------------------------| 
F#|----------------------------------------------------------------------| 
B |----------------------------------------------------------------------|

Guitar 1&2:
C#|----------------------------------------------------------------------|
G#|----------------------------------------------------------------------| 
E |----------------------------------------------------------------------| 
B |-0~-----------------------------------8~--------------10~-------------| 
F#|-0~-----------------------------------8~--------------10~-------------| 
B |-0~-----------------------------------8~--------------10~-------------|

Guitar 1&2:
C#|----------------------------------------------------------------------|
G#|----------------------------------------------------------------------| 
E |----------------------------------------------------------------------| 
B |-0~-----------------------------------8~--------------10~-------------| 
F#|-0~-----------------------------------8~--------------10~-------------| 
B |-0~-----------------------------------8~--------------10~-------------|

Guitar 1:
C#|-------------5~------------------------------6~--------------8~-------|
G#|--------5-6----------6-5-1---------------5-6-------------5-6----------|
E |----------------------------------------------------------------------|
B |----------------------------------------------------------------------| 
F#|----------------------------------------------------------------------| 
B |----------------------------------------------------------------------|

Guitar 2:
C#|----------------------------------------------------------------------|
G#|----------------------------------------------------------------------| 
E |----------------------------------------------------------------------| 
B |-0~-----------------------------------8~--------------10~-------------| 
F#|-0~-----------------------------------8~--------------10~-------------| 
B |-0~-----------------------------------8~--------------10~-------------|

Guitar 1:
C#|-------------5~------------------------------6~--------------8~-------|
G#|--------5-6----------6-5-1---------------5-6-------------5-6----------|
E |----------------------------------------------------------------------|
B |----------------------------------------------------------------------| 
F#|----------------------------------------------------------------------| 
B |----------------------------------------------------------------------|

Guitar 2:
C#|----------------------------------------------------------------------|
G#|----------------------------------------------------------------------| 
E |----------------------------------------------------------------------| 
B |-0~-----------------------------------8~--------------10~-------------| 
F#|-0~-----------------------------------8~--------------10~-------------| 
B |-0~-----------------------------------8~--------------10~-------------|

Guitar 1&2:   *=Harmonic
C#|-----------------------------------------------|
G#|---------------------------------------5*------|
E |---------------------------------------5*------|
B |-----------------------------------------------|
F#|----0----0-0-0--------0----0-0-0---------------|
B |----0----0-0-0--------0----0-0-0---------------|

Guitar 1:
C#|----------------------------------------------------------------------|
G#|-------10-6-8-10--------10-6-8-5--------6-3-5-6--------6-3-5-6--------|
E |----------------------------------------------------------------------| 
B |----------------------------------------------------------------------| 
F#|----------------------------------------------------------------------| 
B |----------------------------------------------------------------------|

Guitar 2:
C#|---------------------------------------------------------------------|
G#|---------------------------------------------------------------------|
E |---------------------------------------------------------------------|
B |---------------------------------------------------------------------|
F#|----0----0-0-0--------0----0-0-0--------7----7-7-7--------5----5-5-5-|
B |----0----0-0-0--------0----0-0-0--------7----7-7-7--------5----5-5-5-|

Guitar 1:
C#|----------------------------------------------------------------------|
G#|-------10-6-8-10--------10-6-8-5--------6-3-5-6--------6-3-5-6--------|
E |----------------------------------------------------------------------| 
B |----------------------------------------------------------------------| 
F#|----------------------------------------------------------------------| 
B |----------------------------------------------------------------------|

Guitar 2:
C#|---------------------------------------------------------------------|
G#|---------------------------------------------------------------------|
E |---------------------------------------------------------------------|
B |---------------------------------------------------------------------|
F#|----0----0-0-0--------0----0-0-0--------7----7-7-7--------5----5-5-5-|
B |----0----0-0-0--------0----0-0-0--------7----7-7-7--------5----5-5-5-|

Guitar 1:
C#|----------------------------------------------------------------------|
G#|-------10-6-8-10--------10-6-8-5--------6/8-5-3--------6-5-8-6*-------|
E |----------------------------------------------------------------------| 
B |----------------------------------------------------------------------| 
F#|----------------------------------------------------------------------| 
B |----------------------------------------------------------------------|

Guitar 2:
C#|---------------------------------------------------------------------|
G#|---------------------------------------------------------------------|
E |---------------------------------------------------------------------|
B |---------------------------------------------------------------------|
F#|----0----0-0-0--------0----0-0-0--------7----7-7-7--------5----5-5-5-|
B |----0----0-0-0--------0----0-0-0--------7----7-7-7--------5----5-5-5-|

Guitar 1:
C#|----------------------------------------------------------------------|
G#|-------10-6-8-10--------10-6-8-5--------6/8-5-3--------6-5-8-6*-------|
E |----------------------------------------------------------------------| 
B |----------------------------------------------------------------------| 
F#|----------------------------------------------------------------------| 
B |----------------------------------------------------------------------|

Guitar 2:
C#|---------------------------------------------------------------------|
G#|---------------------------------------------------------------------|
E |---------------------------------------------------------------------|
B |---------------------------------------------------------------------|
F#|----0----0-0-0--------0----0-0-0--------7----7-7-7--------5----5-5-5-|
B |----0----0-0-0--------0----0-0-0--------7----7-7-7--------5----5-5-5-|

Guitar 1&2:   
C#|----------------------------------------------------------------------|
G#|----------------------------------------------------------------------|
E |---------7\-----------7\-----------7\---------------------------------|
B |-0-0-0---x----0-0-0---x----0-0-0---x----0-0-0-2-2-2-3-3-3-2-2-2-------|
F#|-0-0-0---5\---0-0-0---5\---0-0-0---5\---------------------------------|
B |-0-0-0--------0-0-0--------0-0-0--------------------------------------|

Guitar 1&2:   
C#|----------------------------------------------------------------------|
G#|----------------------------------------------------------------------|
E |---------7\-----------7\-----------7\---------------------------------|
B |-0-0-0---x----0-0-0---x----0-0-0---x----------------------------------|
F#|-0-0-0---5\---0-0-0---5\---0-0-0---5\---------------------------------|
B |-0-0-0--------0-0-0--------0-0-0--------------------------------------|