Parkway Drive - Looks Like Yoda Chords & Tabs

 

Looks Like Yoda Chords & Tabs

Parkway Drive Chords & Tabs

Version: 1 Type: Bass Tab

Looks Like Yoda Bass Tab

   
parkway drive - looks like yoda

* = Pinch Harmonics
p = Palm Mute

Intro:

Guitar 1&2: x1
C |------------------------------------|
G |------------------------------------|
C |------------------------------------|
F |000------000------000------000------|

Riff 1:

Guitar 1: x1
C |------------------------------------|
G |-------------------------------9----|
C |--4-4h7--6-679767---4-4h7--6-67-767-|
F |00-----00---------00-----00---------|
   pp     pp         pp     pp
C |------------------------------------|
G |------------------------------------|
C |--4-4h7--6-679767---4-4h7--9-11-7-4-|
F |00-----00---------00-----00---------|
   pp     pp         pp     pp

Guitar 2: x1
C |------------------------------------|
G |--------------------------------9---|
C |-------------9767---------------767-|
F |00-----00--------00------00---------|
   pp     pp        pp     pp
C |------------------------------------|
G |------------------------------------|
C |-------------9767---------9-11-7-4--|
F |00-----00--------00-----00----------|
   pp     pp        pp     pp


Guitar 1&2: x2
C |------------------------------------|
G |-------------------------------9----|
C |--4-4h7--6-679767---4-4h7--6-67-767-|
F |00-----00---------00-----00---------|
   pp     pp         pp     pp
C |------------------------------------|
G |------------------------------------|
C |--4-4h7--6-679767---4-4h7--9-11-7-4-|
F |00-----00---------00-----00---------|
   pp     pp         pp     pp

Breakdown:

Guitar 1&2: x2
C |------------------------------------|
G |------------------------------------|
C |------------------------------------|
F |00-00-000-000-000-00-00-000-000-000-|

C |------------------------------------|
G |------------------------------------|
C |------------------------------------|
F |00-00-000-000-000-00-00-000-000-000-|

Fill:

C |---------------|
G |9--------------|
C |-7-6-7-9-7-6-7-|
F |---------------|
[ Tab from: http://www.guitartabs.cc/tabs/p/parkway_drive/looks_like_yoda_btab.html ]
Guitar 1&2: x2
C |------------------------------------|
G |-------------------------------9----|
C |--4-4h7--6-679767---4-4h7--6-67-767-|
F |00-----00---------00-----00---------|
   pp     pp        pp     pp
C |------------------------------------|
G |------------------------------------|
C |--4-4h7--6-679767---4-4h7--9-11-7-4-|
F |00-----00---------00-----00---------|
   pp     pp         pp     pp

Riff 2:

Guitar 1 x4
C |--8-6-4-3-3h4--8-6-4-3-3h4----------|
G |------------------------------------|
C |------------------------------------|
F |00-0-0-0-0---00-0-0-0-0-------------|
                          *
C |--8-6-4-3-3h4--8-6-4-3-3------------|
G |------------------------------------|
C |------------------------------------|
F |00-0-0-0-0---00-0-0-0-0-------------|

Guitar 2: x2
C |------------------------------------|
G |------------------------------------|
C |------------------------------------|
F |4~----------6~----------------------|

C |------------------------------------|
G |------------------------------------|
C |------------------------------------|
F |7~----------9~----------------------|

Guitar 2: x2
C |--8-6-4-3-3h4--8-6-4-3-3h4----------|
G |------------------------------------|
C |------------------------------------|
F |00-0-0-0-0---00-0-0-0-0-------------|
                          *
C |--8-6-4-3-3h4--8-6-4-3-3------------|
G |------------------------------------|
C |------------------------------------|
F |00-0-0-0-0---00-0-0-0-0-------------|

Riff 3:

Guitar1&2: x1
C |898-898-343-343-3h4-3h4-3-3h4-3h4-3-6-8-4-6-8-4-3-|
G |--------------------------------------------------|
C |--------------------------------------------------|
F |--------------------------------------------------|

     *   *   *   *         *         *             *
C |898-898-343-343-3h4-3h4-3-3h4-3h4-3-6-8-4-6-8-4-3-|
G |--------------------------------------------------|
C |--------------------------------------------------|
F |--------------------------------------------------|

Outro:
the outro is the same as the riff one except slower and then the breakdown on the ends 
i couldent be bothered tabbing it because there's no point enjoy people