Parkway Drive - Anasis Xenophontis Chords & Tabs

 

Anasis Xenophontis Chords & Tabs

Parkway Drive Chords & Tabs

Version: 1 Type: Tab

Anasis Xenophontis Tab

intro            you have to get the timing right yourself for this part
--------------/---------------------------------------------------|
-------10-----/---------------------------------------------------|
-12--12--10---/---------------------------------------------------|
---13------12-/----0----------0----0--0-------0---0---------------|
--------------/----0----------0----0--0-------0---0---------------|
--------------/-00000000000000000000000000000000000---------------|

---------------------------------------------------------|
---------------------------------------------------------|
----7-9-10-----7-9-10-----7-9-10-12-10-9-10-9-5----------|
----x-x-x------x-x-x------x-x-x---x-x--x-x--x-x----------|
----5-7-8------5-7-8------5-7-8--10-8--7-8--7-3----------|
0000-------0000-------0000-------------------------------|

thats only the intro and bridge and dunno if the intro is 100% correct
[ Tab from: http://www.guitartabs.cc/tabs/p/parkway_drive/anasis_xenophontis_tab.html ]