Parka Kings - City Limits Chords & Tabs

 

City Limits Chords & Tabs

Parka Kings Chords & Tabs

Version: 2 Type: Bass Tab 0 ratings
1 star 2 stars 3 stars 4 stars 5 stars
comments

City Limits Bass Tab

   
  BTAB: City Limits
Artist: Parka Kings
 Album: Buienevdos
Author: Rattman (jratt0@hotmail.com)

**Padrino's Bass Tab Exclusive!**

Intro:
             x 3
G---------------------5-5-5h7p5-|-------------------------------
D-5~----------5-----5-----------|-5~----------------------------
A----5~---------5-3-------------|----5~----------3---x----------
E-------3~-3--------------------|-------3~-3-3-3---------3/15\3-
[ Tab from: http://www.guitartabs.cc/tabs/p/parka_kings/city_limits_btab_ver_2.html ]
Fast Part/Horn Riff/Chorus
G----------2-0------------------
D---------------3---2-3-5-5-2-0-
A---2-3-5---------3-------------
E-3-----------------------------

Slower Verse Part:
G---------2-2---------0-0-
D-----------------2-------
A-----2-------3-3---3-----
E-3-3---3-----------------

"Misjudged your limits..."
G-------------------------------------2-0------
D---4---2-2-2---4---2-2-2---4---2-2-2------4-2-
A-2---2-------2---2-------2---2----------------
E----------------------------------------------

End
"..sweat!"
G-----
D-----
A-----
E-3\0-

Taken from Padrino's Bass Tab Archive: http://members.xoom.com/jszalma/
Comments