Parasite Eve - Intro Song Chords & Tabs

 

Intro Song Chords & Tabs

Parasite Eve Chords & Tabs

Version: 1 Type: Tab 0 ratings
1 star 2 stars 3 stars 4 stars 5 stars
comments

Intro Song Tab

parasite eve
the intro song

This song is played like this but I will include the tab one
octave lower so that the ones playing an accoustic guitar can
play it easier.

|-14----17----15--14--14----17----15--14---|
|-----15----15------------15----15---------|
|---16----16----16--16--16----16----16--16-|
|------------------------------------------|
|------------------------------------------|
|------------------------------------------|


|-12----15----14----17----15--14---|
|-----13----13----13----13---------|
|---14----14----14----14----14--14-|
|----------------------------------|
|----------------------------------|
|----------------------------------|


|-14----17----15--14--14----17----15----19-|
|-----15----15------------15----15----15---|
|---16----16----16--16--16----16----16-----|
|------------------------------------------|
|------------------------------------------|
|------------------------------------------|


|-----17--15--14----15--12--|
|---15------------15--------|
|-16----16--16--16----16----|
|---------------------------|
|---------------------------|
|---------------------------|

[ Tab from: http://www.guitartabs.cc/tabs/p/parasite_eve/intro_song_tab.html ]
|---------2---4---5-4-2-9-7-5-4--|
|-----0-3---3---3----------------|
|--------------------------------|
|---4----------------------------|
|-2------------------------------|
|--------------------------------|


|-----------------------2-0------|
|---------0---2---3-2-0-----3-2--|
|-------0---0---0----------------|
|-----2--------------------------|
|---2----------------------------|
|-2------------------------------|


|---------2---4---5-4-2-9-7-5-4--|
|-----0-3---3---3----------------|
|--------------------------------|
|---4----------------------------|
|-2------------------------------|
|--------------------------------|

and that is as far as I got and someone else
can figure the rest out.


here is the one octave down

|-2-----5-----3---2---2----5-----3---2---|
|-----3-----3------------3-----3---------|
|---4-----4-----4---4--4-----4-----4---4-|
|----------------------------------------|
|----------------------------------------|
|----------------------------------------|


|-0-----3---|
|-----1-----|
|---2-------| and so forth.
|-----------| you get the picture.
|-----------|
|-----------|

If anybody can tell me the real name for this
song, please E-mail me and if anyone figures out
the rest.

Nate
(thedstring@aol.com) & (thedstring@hotmail.com)
Comments