Paranoid Social Club - Two Girls Chords & Tabs

 

Two Girls Chords & Tabs

Paranoid Social Club Chords & Tabs

Version: 1 Type: Tab 0 ratings
1 star 2 stars 3 stars 4 stars 5 stars
comments

Two Girls Tab

   
-------------------------------------------------------------------------------
			     TWO GIRLS - Paranoid Social Club
-------------------------------------------------------------------------------
Tabbed by: Chris Gill
Email:	CGill1403@aol.com

Tuning: E A D G B E

If you don't know or havent heard this band go to www.pscmusic.com and sample some of
their music on their web site.  At this time, this is the song playing on their opening
page, enjoy.

Riff 1
e|-------------------------------|
B|-------------------------------|
G|-------------------------------|
D|--6-6-6-6-6-6-6-6-3-3-3-3-6-7--|
A|--6-6-6-6-6-6-6-6-3-3-3-3-6-7--|
E|--4-4-4-4-4-4-4-4-1-1-1-1-4-5--|
[ Tab from: http://www.guitartabs.cc/tabs/p/paranoid_social_club/two_girls_tab.html ]
Riff 2
e|-------------------------------------------------------------|
B|-------------------------------------------------------------|
G|-------------------------------------------------------------|
D|-----x--------------x--------------x--------------x----------|
A|--8--x-8-11-11---6--x-6--9--9---8--x-8-11-11---6--x-6--9--9--|
E|--6--x-6--9--9---4--x-4--7--7---6--x-6--9--9---4--x-4--7--7--|

Riff 3
e|-----6-------9------4-------7------6-------9------6-------7--|
B|-----6-------9------4-------7------6-------9------6-------7--|
G|-----7------10------5-------8------7------10------7-------8--|
D|-----8------11------6-------9------8------11------8-------9--|
A|-------------------------------------------------------------|
E|-------------------------------------------------------------|
Comments