Paramore - Hallelujah Chords & Tabs

 

Hallelujah Chords & Tabs

Paramore Chords & Tabs

Version: 1 Type: Tab

Hallelujah Tab

   
-------------------------------------------------------------------------------
			     Hallelujah - Paramore
-------------------------------------------------------------------------------
Tabbed by: Alex
Email: aroussos50@hotmail.com

Tuning: Drop D
intro x6 (guitar 1)
e|-777--999--111111--141414--0-0-0-----------------------------------------|
B|-000--000--0-0-0---0-0-0---111111----------------------------------------|
G|-------------------------------------------------------------------------|
D|-------------------------------------------------------------------------|
A|-------------------------------------------------------------------------|
D|-------------------------------------------------------------------------|
intro x4 (guitar 2)
e|-------------------------------------------------------------------------|
B|-------------------------------------------------------------------------|
G|-------------------------------------------------------------------------|
D|-9------6-----2----------------------------------------------------------|
A|-9-x16--6-x8--2-x8-------------------------------------------------------|
D|-9------6-----2----------------------------------------------------------|

verse x4   
e|-------------------------------------------------------------------------|
B|-------------------------------------------------------------------------|
G|-------------------------------------------------------------------------|
D|-9-----6-----8-----------------------------------------------------------|
A|-9-x3--6-x3--8-x8--------------------------------------------------------|
D|-9-----6-----8-----------------------------------------------------------|
play the intro (guitar 1 part) while (guitar 2) plays the B chord 1s let it ring
[ Tab from: http://www.guitartabs.cc/tabs/p/paramore/hallelujah_tab.html ]
Chorus x2
e|-------------------------------------------------------------------------|
B|-------------------------------------------------------------------------|
G|-------------------------------------------------------------------------|
D|-9------6-----2----------------------------------------------------------|
A|-9-x16--6-x8--2-x8-------------------------------------------------------|
D|-9------6-----2----------------------------------------------------------|
then x2
e|-------------------------------------------------------------------------|
B|-------------------------------------------------------------------------|
G|-------------------------------------------------------------------------|
D|-999-999-999-999---6-----2-----------------------------------------------|
A|-999-999-999-999---6-x8--2-x8--------------------------------------------|
D|-999-999-999-999---6-----2-----------------------------------------------|

Middle 8 
e|-------------------------------------------------------------------------|
B|-------------------------------------------------------------------------|
G|-------------------------------------------------------------------------|
D|-111--222--666--9999999--111--222--6666666666----------------------------|
A|-111--222--666--9999999--111--222--6666666666----------------------------|
D|-111--222--666--9999999--111--222--6666666666----------------------------|
   xxx  xxx  xxx   xx x x  xxx  xxx  xxx xx x x
Middle 8 section 2 x6
e|-------------------------------------------------------------------------|
B|-------------------------------------------------------------------------|
G|-------------------------------------------------------------------------|
D|-111--222--666--99999999--111--222--6666666666---------------------------|
A|-111--222--666--99999999--111--222--6666666666---------------------------|
D|-111--222--666--99999999--111--222--6666666666---------------------------|
last 2 times theres a small solo over the top i haven't figured out 

intro
verse
bridge (sames as the 1st part or the intro with just 1 guitar)
chorus
verse
bridge (sames as the 1st part or the intro with just 1 guitar)
chorus
middle 8
middle 8 section 2
chorus

email me if i need to change anything or just want to say hi 

| /  slide up
| \  slide down
| h  hammer-on
| p  pull-off
| ~  vibrato
| +  harmonic
| x  Mute note

Paramore @ GIVE IT A NAME 06 :D:D:D:D:D:D WOOOOOOO ! !