Paramore - Brighter Chords & Tabs

 

Brighter Chords & Tabs

Paramore Chords & Tabs

Version: 3 Type: Tab

Brighter Tab

Yes one of my Favorite songs on their CD! w00t!

INTRO PART1 (LEAD)
e-----9-9-----9-9----------------------------------|  |
B-----9-9-----9-9----------------------------------|  |
G-----------------6h7-6h7--------------------------|  |
D-6h7-----6h7--------------------------------------|x4|
A--------------------------------------------------|  |
E--------------------------------------------------|  |

(RYTHM)(Comes in after second time through Guitar 1)
e--------------------------------------------------|  |
B--------------------------------------------------|  |
G-----------------9--------------------------------|x1|
D-7-(x12)-4-(x12)-9---(x12)---7-7-x-6~-------------|  |
A-7-------4-------7-----------7-7-x-6~-------------|  |
E-5-------2-------0-----------5-5-x-4~-------------|  |



INTRO PART2 (LEAD)
e------5---7---9--------------5-5--4~--------------|  |
B--2-3---3---3---5---------------------------------|  |
G--------------------------------------------------|  |
D--------------------------------------------------|x1|
A--------------------------------------------------|  |
E--------------------------------------------------|  |
                                
RYTHM  
e--------------------------------------------------|  |
B--------------------------------------------------|  |
G-----------------9--------------------------------|x1|
D-7-(x12)-4-(x12)-9---(x12)---7-7-x-6~-------------|  |
A-7-------4-------7-----------7-7-x-6~-------------|  |
E-5-------2-------0-----------5-5-x-4~-------------|  |


VERSE (I'm trying to line the words up with the music.
I dont have the lead cuz i couldn't figure it out but
just play with the bass.)
    So this is  How it  goes
    Well I      I...    known
    And if it   Ends today I'll...
    You shine   Brighter than anyone! 
e------------------------------------------|  |
B------------------------------------------|  |
G-----------------------99-----------99----|x4|
D-77----------44--------99-----------99----|  |
A-77----------44--------77-----------77----|  |
E-55----------22--------00-----------00----|  |


CHORUS (LEAD)
e-----9-9-----9-9-------------5-5--4~--------------|  |
B-----9-9-----9-9----------------------------------|  |
G-----------------6h7-6h7--------------------------|  |
D-6h7-----6h7--------------------------------------|x4|
A--------------------------------------------------|  |
E--------------------------------------------------|  |

(RYTHM)
e--------------------------------------------------|  |
B--------------------------------------------------|  |
G-----------------9--------------------------------|x1|
D-7-(x12)-4-(x12)-9---(x12)---7-7-x-6~-------------|  |
A-7-------4-------7-----------7-7-x-6~-------------|  |
E-5-------2-------0-----------5-5-x-4~-------------|  |


(LEAD)
e-----9-9-----9-9-------------5-5--4~--------------|  |
B-----9-9-----9-9----------------------------------|  |
G-----------------6h7-6h7--------------------------|  |
D-6h7-----6h7--------------------------------------|x4|
A--------------------------------------------------|  |
E--------------------------------------------------|  |
[ Tab from: http://www.guitartabs.cc/tabs/p/paramore/brighter_tab_ver_3.html ]
(RYTHM)
e--------------------------------------------------|  |
B--------------------------------------------------|  |
G-----------------9--------------------------------|x1|
D-7-(x12)-4-(x12)-9---(x12)---7-7-x-6~-------------|  |
A-7-------4-------7-----------7-7-x-6~-------------|  |
E-5-------2-------0-----------5-5-x-4~-------------|  |


(LEAD)
e-----9-9-----9-9-------------5-5--4~--------------|  |
B-----9-9-----9-9----------------------------------|  |
G-----------------6h7-6h7--------------------------|  |
D-6h7-----6h7--------------------------------------|x4|
A--------------------------------------------------|  |
E--------------------------------------------------|  |

(RYTHM)
e--------------------------------------------------|  |
B--------------------------------------------------|  |
G-----------------9--------------------------------|x1|
D-7-(x12)-4-(x12)-9---(x12)---7-7-x-6~-------------|  |
A-7-------4-------7-----------7-7-x-6~-------------|  |
E-5-------2-------0-----------5-5-x-4~-------------|  |

(LEAD)
e-----9-9-----9-9-------------5-5--4~--------------|  |
B-----9-9-----9-9----------------------------------|  |
G-----------------6h7-6h7--------------------------|  |
D-6h7-----6h7--------------------------------------|x4|
A--------------------------------------------------|  |
E--------------------------------------------------|  |

(RYTHM)
e--------------------------------------------------|  |
B--------------------------------------------------|  |
G-----------------9--------------------------------|x1|
D-7-(x12)-4-(x12)-9---(x12)---7-7-x-6~-------------|  |
A-7-------4-------7-----------7-7-x-6~-------------|  |
E-5-------2-------0-----------5-5-x-4~-------------|  |

VERSE

CHORUS

SOLO (LEAD)
E--------------17----------------------------------|
B-14---------------14------------------------------|
G-----14-13-14--------14-13-14--11-9---------------|
D--------------------------------------------------|
A--------------------------------------------------|
D--------------------------------------------------|

E--------------17--17-16-14------------------------|
B--14-----------------------14-15-17---------------|
G-----14-13-14-------------------------------------|
D--------------------------------------------------|
A--------------------------------------------------|
E--------------------------------------------------|

RYTHM (Played During solo((REALLY UNSURE!!))
E--------------------------------------------------|  |
B--------------------------------------------------|  |
G----------------9-9-9--9-9-9---------------------|  |
D--7-7-7--4-4-4--9-9-9--9-9-9--6------------------|x2|
A--7-7-7--4-4-4--7-7-7--7-7-7--6------------------|  |
E--5-5-5--2-2-2--0-0-0--0-0-0--4------------------|  |

CHORUS

BREAKDOWN (RYTHM) ((SKETCHY As Well))       end on
 I'll Wave goodbye watching you shine...    Tonight...
E-------------------------------------------|--------|
B-------------------------------------------|--------|
G----------------9--------------------------|--------|
D--7------4------9-------x-2--7------4------|-0------|
A--7-(x8)-4-(x8)-7-(x12)-x-2--7-(x4)-4-(x4)-|-0------|
E--5------2------0-------x-2--5------2------|-0------|

LEAD
E-------12----|--------|-------12---|---------------|
B--9-10-------|--------|--9-10------|--10-----------|
G-------------|-11-9---|------------|---------------|
D--^repeat----|--------|--^repeat---|-^then---------|
A---8 times---|-^then--|---5 times--|--end on-------|
D-------------|--------|------------|---------------|


Well im not sure if the last half of that song is correct..
i'll have to listen to it again and make sure.... hmm o wel
the first half is bye!