Paramita - Takipsilim Chords & Tabs

 

Takipsilim Chords & Tabs

Paramita Chords & Tabs

Version: 1 Type: Tab

Takipsilim Tab

   
Song: Takip Silim
Artist: Paramita
Transcribed by: Nathaniel Tria, Mercado
Email: stryder_kaskasero@yahoo.com
       demonyo_de_kaskasero@yahoo.com (add Nyo Sa Friendster!)

	Na Paka Lufet! Ng Bandang Ito Dahil Vocalista nila Eh Yun Din Ang Drummer
	At Ang Ganda Pa Ng Lyrics ng Kanta Nila, Favorite Ko Na Nga itong Kantang 
	Ito Kaya Gumawa Ako Ng Tab eh! Ang Tab Ito Ay Hindi Perpekto Siguro 97.9% 
	Lang Ito! At Please Paki rate Po!(nag mamakaawa ako) For Your Comments And
	Suggestion Please Email Me Or Add Me To Your Friendster List...Thanxz...
	nga Pla Para Toh sa Mga Kabanda ko (Halo-Halo Band, Tsokonhatz Band at Holy
	Saliva!) At Lalung Lalo na Kay Lara(Love Ko Yan!)......Last Message
	ko "Mag Hihintay Ako!"........



Intro:

Gtr 1
      C9
 e|----3-----|
 B|----3-----|
 G|----------|
 D|----2-----|
 A|----3-----|
 E|----------|

Gtr 2

 e|-----3---5p3-----|
 B|---3---3-----3---|
 G|-----------------|8x
 D|-----------------|
 A|-----------------|
 E|-----------------|

Riff 1
Gtr 1

 e|----3---3---3---3----7---7---7---7-------|
 B|------3---3---3---3----8---8---8---8-----|
 G|-----------------------------------------|
 D|-----------------------------------------|
 A|-----------------------------------------|
 E|-----------------------------------------|

Gtr 2

 e|-------------------5h7/8-8-7-------------|
 B|----5-5-5--5-----------------8-----------|
 G|-------------7-7-7-----------------------|
 D|-----------------------------------------|
 A|-----------------------------------------|
 E|-----------------------------------------|

Stanza 1
Gtr 1
 e|----3---3---3---3----7---7---7---7-------|
 B|------3---3---3---3----8---8---8---8-----|
 G|-----------------------------------------|
 D|-----------------------------------------|
 A|-----------------------------------------|
 E|-----------------------------------------|
     san ko hahanapin ang ating nakaraan?

Gtr 1 
 e|----3---3---3---3----7---7---7---7-------|
 B|------3---3---3---3----8---8---8---8-----|
 G|-----------------------------------------|
 D|-----------------------------------------|
 A|-----------------------------------------|
 E|-----------------------------------------|
        ala-alang kay tamis at kay saya

Gtr 1
 e|----3---3---3---3----7---7---7---7-------|
 B|------3---3---3---3----8---8---8---8-----|
 G|-----------------------------------------|
 D|-----------------------------------------|
 A|-----------------------------------------|
 E|-----------------------------------------|

Gtr 2
 e|-----3---5p3-----3---5p3----5p3----5p3----5p3----|
 B|---3---3-----3-3---3-----3------3------3------3--|
 G|-------------------------------------------------|
 D|-------------------------------------------------|
 A|-------------------------------------------------|
 E|-------------------------------------------------|
      ang aking puso'y umaasa.. nananabik sa yo

Gtr 1
 e|----3---3---3---3----7---7---7---7-------|
 B|------3---3---3---3----8---8---8---8-----|
 G|-----------------------------------------|
 D|-----------------------------------------|
 A|-----------------------------------------|
 E|-----------------------------------------|

Gtr 2
 e|-----3---5p3-----3---5p3----5p3----5p3----5p3----|
 B|---3---3-----3-3---3-----3------3------3------3--|
 G|-------------------------------------------------|
 D|-------------------------------------------------|
 A|-------------------------------------------------|
 E|-------------------------------------------------|
     di mapigil ang damdaming.. nababaliw sa yo..
       E            F#             G             C
 e|----------------------------------------------------------------|
 B|----------------------------------------------------------------|
 G|----99999-------------------------------------------------------|
 D|----99999---------44444---------55555---------1010101010--------|
 A|----77777---------44444---------55555---------1010101010--------|
 E|------------------22222---------33333---------8-8-8-8-8---------|
     aaminin ko,  lahat ng ito,  ay inaalay..  lamang sa iyo...
       E              F#              G              C
 e|--------------------------------------------------------------------|
 B|--------------------------------------------------------------------|
 G|----99999-----------------------------------------------------------|
 D|----99999----------44444-----------55555----------1010101010--------|
 A|----77777----------44444-----------55555----------1010101010--------|
 E|-------------------22222-----------33333----------8-8-8-8-8---------|
     aaminin ko, na ang buhay ko, ay walang kulay kung di dahil sa yo
       E              F#               G              C
 e|---------------------------------------------------------------------|
 B|---------------------------------------------------------------------|
 G|----99999------------------------------------------------------------|
 D|----99999----------44444------------55555----------1010101010--------|
 A|----77777----------44444------------55555----------1010101010--------|
 E|-------------------22222------------33333----------8-8-8-8-8---------|
     aaminin ko, tanging ngalan mo, ang sinisigaw  ng damdamin ko..
       B       C             D               B       C            D
 e|----------------------------------------------------------------------------|
 B|----------------------------------------------------------------------------|
 G|--------------------------7777777777---------------------------7777777777---|
 D|----88888---1010101010----7777777777------88888---1010101010---7777777777---|
 A|----88888---1010101010----5555555555------88888---1010101010---5555555555---|
 E|----77777---8-8-8-8-8---------------------77777---8-8-8-8-8-----------------|
       Ohh... oh.. oh..   "MAGHIHINTAY AKO"           Wo Oh... Oh... oh.....
[ Tab from: http://www.guitartabs.cc/tabs/p/paramita/takipsilim_tab.html ]
       E              F#               G
 e|-----------------------------------------------|
 B|-----------------------------------------------|
 G|----9999999999---------------------------------|
 D|----9999999999-----44444------------55555------|
 A|----7777777777-----44444------------55555------|
 E|-------------------22222------------33333------|
        patawad,      di ko      maikukubli..

       E              F#               G
 e|-----------------------------------------------|
 B|-----------------------------------------------|
 G|----9999999999---------------------------------|
 D|----9999999999-----44444------------55555------|
 A|----7777777777-----44444------------55555------|
 E|-------------------22222------------33333------|
     di inaasahang    mayro'ng    katapusan

       E              F#               G
 e|-----------------------------------------------|
 B|-----------------------------------------------|
 G|----9999999999---------------------------------|
 D|----9999999999-----44444------------55555------|
 A|----7777777777-----44444------------55555------|
 E|-------------------22222------------33333------|
   sana'y iningatan   ang        pagkakataon

 e|----------------------------------------------------|
 B|----------------------------------------------------|
 G|------------------------------555/777/999/111111----|
 D|---77777----99999-------------555/777/999/111111----|
 A|---77777----99999-------------333/555/777/9-9-9-----|
 E|---55555----77777-----------------------------------|
    na noo'y     tayo     lamang, at ang bawa't sandali

 e|----------------------------------------------------|
 B|----------------------------------------------------|
 G|------------------------------555/777/999/111111----|
 D|---77777----99999-------------333/777/999/111111----|
 A|---77777----99999-------------333/555/777/9-9-9-----|
 E|---55555----77777-----------------------------------|
     ay atin   lamang..          ito'y alay ko sa yo..

Adlib:
Gtr 1
 e|-------------------------------------------|
 B|-------------------------------------------|
 G|-------------------------------------------|
 D|---77777---99999---10101010101010101010----|3x
 A|---77777---99999---10101010101010101010----|
 E|---55555---77777---8-8-8-8-8-8-8-8-8-8-----|

 e|---------------------------|
 B|---------------------------|
 G|---------------------------|
 D|---77777---99999---10------|
 A|---77777---99999---10------|
 E|---55555---77777---8-------|

Gtr 2 

 e|--------------------------------------------------------|
 B|----8-8-8p7------------8-8-8p7-8-8/10-10-10/12-10-------|
 G|------------9-7-7h9-7-----------------------------------|
 D|--------------------------------------------------------|
 A|--------------------------------------------------------|
 E|--------------------------------------------------------|

 e|--------------------------------------------------------|
 B|----8-8-8p7--------------------8-8/10-10/12-12/13\12----|
 G|------------9-7-7h9-7--7h9-7-9--------------------------|
 D|--------------------------------------------------------|
 A|--------------------------------------------------------|
 E|--------------------------------------------------------|


 e|---10p8p7-8p7-7h8p7h8--10p8p7-8p7-7h8p7h8--10p8p7-8p7-7h8p7h8------|
 B|-------------------------------------------------------------------|
 G|-------------------------------------------------------------------|
 D|-------------------------------------------------------------------|
 A|-------------------------------------------------------------------|
 E|-------------------------------------------------------------------|


 e|--7h8-8/10-10-10/12-10-12/15-15-15-14----15-15-15-14--------|
 B|-----------------------------------16-------------16-14-----|
 G|------------------------------------------------------------|
 D|------------------------------------------------------------|
 A|------------------------------------------------------------|
 E|------------------------------------------------------------|

Coda:
Gtr 1 
      C9
 e|----3-----|
 B|----3-----|
 G|----------|(Ulit-ulitin)
 D|----2-----|
 A|----3-----|
 E|----------|


Gtr 2 
 e|----3---3---3---3----7---7---7---7-------|
 B|------3---3---3---3----8---8---8---8-----|
 G|-----------------------------------------|4x
 D|-----------------------------------------|
 A|-----------------------------------------|
 E|-----------------------------------------|

di makapaniwalang.. tapos na
ang lahat sa atin,
at di ka na.. magiging atin
kahit na.. andito pa rin ako...
umaasa...

Repeat (chorus)

       B       C             D               B       C            D
 e|----------------------------------------------------------------------------|
 B|----------------------------------------------------------------------------|
 G|--------------------------7777777777---------------------------7777777777---|
 D|----88888---1010101010----7777777777------88888---1010101010---7777777777---|
 A|----88888---1010101010----5555555555------88888---1010101010---5555555555---|
 E|----77777---8-8-8-8-8---------------------77777---8-8-8-8-8-----------------|
       Ohh... oh.. oh..   "MAGHIHINTAY AKO"           Wo Oh... Oh... oh.....

Outro:

       B       C             D           
 e|----------------------------------------|
 B|----------------------------------------|
 G|--------------------------7777777777----|
 D|----88888---1010101010----7777777777----|
 A|----88888---1010101010----5555555555----|
 E|----77777---8-8-8-8-8-------------------|

       B       C             D           
 e|--------------------------------------------------------------------|
 B|--------------------------------------------------------------------|
 G|--------------------------777-555-444-----777-555-444---------------|
 D|----88888---1010101010----777-555-444-777-777-555-444-777-555-444---|
 A|----88888---1010101010----555-333-222-777-555-333-222-777-555-444---|
 E|----77777---8-8-8-8-8-----------------555-------------555-333-222---|


 e|------------------|
 B|------------------|
 G|------------------|
 D|----555-777777----|
 A|----555-777777----|
 E|----333-555555----|

       B       C             D           
 e|-------------------------------------------|
 B|-------------------------------------------|
 G|--------------------------7777777777-555---|
 D|----88888---1010101010----7777777777-555---|
 A|----88888---1010101010----5555555555-333---|
 E|----77777---8-8-8-8-8----------------------|

_________End_________

'deMon'=> And -=Angel=-