Paramita - Hiling Chords & Tabs

 

Hiling Chords & Tabs

Paramita Chords & Tabs

Version: 3 Type: Tab

Hiling Tab

   
Song: Hiling (adlib)
Artist: Paramita
Tabbed By: retselmanalo@yahoo.com

++this tab is brought to you by "BRANDED Shirts" he he he he....

Tuning: EADGBE/standard



e |-------------------------------------------------------------------|
b |---2\-15-15---13-13---12-12---10-10---------8h10--10\12---10-------|
g |--------------------------------------7h9--------------------------|
d |-------------------------------------------------------------------|
a |-------------------------------------------------------------------|
e |-------------------------------------------------------------------|

[ Tab from: http://www.guitartabs.cc/tabs/p/paramita/hiling_tab_ver_3.html ]
e |---------------------------------------------------------------------|
b |--------8-8\10-8-----------------8-8-8p7-8p7-----------8\15-13-12-10-|
g |---7h9----------------7-7\9-7----------------9-7---7h9---------------|
d |------------------7h9------------------------------------------------|
a |---------------------------------------------------------------------|
e |---------------------------------------------------------------------|


e |---------------------------------------------------------------------|
b |------8\15-13-12-10--8-7-8-10-10\12--10-----8-8-8p7-8p7--------------|
g |---7----------------------------------------------------9-8----------|
d |---------------------------------------------------------------------|
a |---------------------------------------------------------------------|
e |---------------------------------------------------------------------|


| /  slide up
| \  slide down
| h  hammer-on
| p  pull-off