Paradise Lost - This Cold Life Chords & Tabs

 

This Cold Life Chords & Tabs

Paradise Lost Chords & Tabs

Version: 1 Type: Tab 0 ratings
1 star 2 stars 3 stars 4 stars 5 stars
comments

This Cold Life Tab

tuning 	1 Whole step Down
ARTIST	Paradise Lost	
SONG	This Cold Life 			(and it is)	
ALBMN	One Second

TRANSCRIBED BY Mark Graham 
DATE 16.02.98            
TIME 18.43 GMT        
any corrections Comments or for a Chat your welcome to primetime@clara.net

Riff 1
I can take one day
I cannot deny
|--------------------------------------------------------------------|
|--------------------------------------------------------------------|Steve
|------0--3-0--------0--3-0---------0--3-0--------0---3-0------------|BASS arr for Guitar
|----------------------------------------------1-----------3h5-------|
|--------------------------------3----------3------------------------|
|--3-----------3--1-----------1--------------------------------------|

Riff 2
|-------15---------13-------15-------13-----------15-----13---------15------|
|----15-----15-----------15----15-------------15-----------------15---------|
|-12------------12----------------12------12----------12------12------------|Gregor
|---------------------------------------------------------------------------|
|---------------------------------------------------------------------------|
|---------------------------------------------------------------------------|

Riff 3
I never needed foes
I can take one day
|--3--------1--------3-------6-------------------------------------------|
|--3--------1--------3-------6-------------------------------------------|
|--3--------2--------5-------8-------------------------------------------|
|--5--------3--------5-------8-------------------------------------------|
|--------------------3-------6-------------------------------------------|
|------------------------------------------------------------------------|

Riff 4
|------------1-----3--/---6-------------------------------------------|
|------------1-----3--/---6-----------3-------------------------------|
|------------3-----5--/---8-----------3-------------------------------|
|---5--------3-----5--/---8-----------5-------------------------------|
|---5-----------------------------------------------------------------|
|---3-----------------------------------------------------------------|
[ Tab from: http://www.guitartabs.cc/tabs/p/paradise_lost/this_cold_life_tab.html ]
Riff 5
|-------15---------13-------15-------13-----------15-----13---------15------|
|----15-----15-----------15----15-------------15-----------------15---------|
|-12------------12----------------12------12----------12------12------------|Gregor
|---------------------------------------------------------------------------|
|---------------------------------------------------------------------------|
|---------------------------------------------------------------------------|

Riff 5
|--------------------------------------------------------------------|
|----3---------------------------------------------------------------|
|----0----/7-----/12-------------------------------------------------|Aaron
|----5---------------------------------------------------------------|
|--------------------------------------------------------------------|
|--------------------------------------------------------------------|

I never needed foes
Riff 6
|--3--------1--------3-------6-------------------------------------------|
|--3--------1--------3-------6-------------------------------------------|Distortion
|--3--------2--------5-------8-------------------------------------------|Both
|--5--------3--------5-------8-------------------------------------------|
|--------------------3-------6-------------------------------------------|
|------------------------------------------------------------------------|

Riff 7 
|--------------------------------------------------------------------|
|--------------------------------------------------------------------|
|--------------------------------------------------------------------|Both
|---5~~--------------------------------------------------------------|
|---5~~--------------------------------------------------------------|
|---3~~--------------------------------------------------------------|

|---------3----3--3-3-----------1--1--1------------3--3--3------------6--6--6-------|
|---------3----3--3-3-----------1--1--1------------3--3--3------------6--6--6-------|
|---------3----3--3-3-----------2--2--2------------5--5--5------------8--8--8-------|Both
|---------5----5--5-5-----------3--3--3-----5--5---5--5--5-----8--8---8--8--8-------|
|-5--5----5----5--5-5-----3--3--3--3--3-----3--3---3--3--3-----6--6---6--6--6-------|
|-3--3----3----3--3-3-----1--1--1--1--1---------------------------------------------|
Comments