Parachute - Kiss Me Slowly Chords & Tabs

 

Kiss Me Slowly Chords & Tabs

Parachute Chords & Tabs

Version: 1 Type: Bass Tab 0 ratings
1 star 2 stars 3 stars 4 stars 5 stars
comments

Kiss Me Slowly Bass Tab

   
-----------------------------------------------------------------------------
			     Kiss Me Slowly - Parachute
-----------------------------------------------------------------------------

Tabbed By : Matt
e-mail: mattabasspen@yahoo.com

Tuning: EADG

0:55
G|--------------------------------------|
D|----12~\ ----7~\ -----4~ \-----2~ ----|
A|--------------------------------------| X2
E|--------------------------------------|

1:27
G|----------------------------------------|
D|----------------------------------------|
A|--------------------4-5-55-5-7-77-7-----| X3
E|---\2-22-2--4-5-55-5--------------------|
[ Tab from: http://www.guitartabs.cc/tabs/p/parachute/kiss_me_slowly_btab.html ]
2:02
G|-------------------------------------------|
D|-------------------------------------------|
A|-----5-55----------------7-77-7------------| Repeated til end, with some rests. Just
E|----------55-5-5\--2-22-2------------------| follow the song.

End with:
G|-------------------|
D|-------------------|
A|-----7~ -----------|
E|-------------------|


Listen to the song to get the proper fingering. This was just a rough idea.
Thanks! Let me know if I made any mistakes!!

| /  slide up
| \  slide down
| h  hammer-on
| p  pull-off
| ~  vibrato
| +  harmonic
| x  Mute note
=============================================================
Comments