Parachute - Forever And Always Chords & Tabs

 

Forever And Always Chords & Tabs

Parachute Chords & Tabs

Version: 1 Type: Bass Tab 0 ratings
1 star 2 stars 3 stars 4 stars 5 stars
comments

Forever And Always Bass Tab

   
-------------------------------------------------------------------------------
                         Forever And Always - Parachute
-------------------------------------------------------------------------------
Tabbed by: Aaron Spencer
E-mail: aspencer80@gmail.com

Tuning: Standard

Intro/Verse 1
  0:05
G|---------------------------------------------------------------------------|
D|---------------------------------------------------------------------------|
A|---5-5-5-5-5-5-5-5-0-0-0-0-0-0-0-0-----------------------------------------| x3
E|-----------------------------------2-2-2-2-2-2-2-2-3-3-3-3-3-3-3-3---------|

  0:35
G|---------------------------------------------------------------------------|
D|---------------------------------------------------------------------------|
A|--2-2-2-2-2-2-2-2-0-0-0-0-0-0-0-0------------------------------------------| x2
E|----------------------------------2-2-2-2-2-2-2-2-3-3-3-3-3-3-3-3----------|
   
Chorus 1
  0:56
G|---------------------------------------------------------------------------|
D|---------------------------------------------------------------------------|
A|--5-5-5-5-5-5-5-5-0-0-0-0-0-0-0-0-2-2-2-2-2-2-2-2--------------------------|
E|--------------------------------------------------3-3-3-3-3-3-3-3----------|

  1:06
G|---------------------------------------------------------------------------|
D|---------------------------------------------------------------------------|
A|--5-5-5-5-5-5-5-5-0-0-0-0-0-0-0-0------------------------------------------|
E|----------------------------------2-2-2-2-2-2-2-2-3-3-3-3-3-3-3-3----------|

Verse 2
  1:16
G|---------------------------------------------------------------------------|
D|---------------------------------------------------------------------------|
A|--2-2-2-2-2-2-2-2-0-0-0-0-0-0-0-0------------------------------------------| x2
E|----------------------------------2-2-2-2-2-2-2-2-3-3-3-3-3-3-3-3----------|

  1:37
G|---------------------------------------------------------------------------|
D|---------------------------------------------------------------------------|
A|------------------0-0-0-0-0-0-0-0------------------------------------------|
E|--3-3-3-3-3-3-3-3-----------------2-2-2-2-2-2-2-2-3-3-3-3-3-3-3-3----------|

  1:47
G|-----------------------------------|
D|-----------------------------------|
A|------------------0-0-0-0-0-0-0-0--|
E|--3-3-3-3-3-3-3-3------------------|

Chorus 2
  1:51
G|---------------------------------------------------------------------------|
D|---------------------------------------------------------------------------|
A|--5-5-5-5-5-5-5-5-0-0-0-0-0-0-0-0-2-2-2-2-2-2-2-2--------------------------| x2
E|--------------------------------------------------3-3-3-3-3-3-3-3----------|

  2:12
G|---------------------------------------------------------------------------|
D|---------------------------------------------------------------------------|
A|--2-2-2-2-2-2-2-2-0-0-0-0-0-0-0-0------------------------------------------|
E|----------------------------------2-2-2-2-2-2-2-2-3-3-3-3-3-3-3-3----------|
[ Tab from: http://www.guitartabs.cc/tabs/p/parachute/forever_and_always_btab.html ]
Bridge
  2:22
G|---------------------------------------------------------------------------|
D|---------------------------------------------------------------------------|
A|------------------0-0-0-0-0-0-0-0------------------------------------------| x2
E|--3-3-3-3-3-3-3-3-----------------2-2-2-2-2-2-2-2-3-3-3-3-3-3-3-3----------|

  2:43
G|------------------------------------|
D|------------------------------------|
A|------------------0-0-0-0-0-0-0-0---|
E|--3-3-3-3-3-3-3-3-------------------|

Chorus 3
  2:48
G|---------------------------------------------------------------------------|
D|---------------------------------------------------------------------------|
A|--5-5-5-5-5-5-5-5-0-0-0-0-0-0-0-0-2-2-2-2-2-2-2-2--------------------------| x2
E|--------------------------------------------------3-3-3-3-3-3-3-3----------|

 3:08 
G|---------------------------------------------------------------------------|
D|---------------------------------------------------------------------------|
A|--2-2-2-2-2-2-2-2-0-0-0-0-0-0-0-0------------------------------------------|
E|----------------------------------2-2-2-2-2-2-2-2-3-3-3-3-3-3-3-3----------|

  3:19
G|---------------------------------------------------------------------------|
D|---------------------------------------------------------------------------|
A|--5-5-5-5-5-5-5-5-0-0-0-0-0-0-0-0------------------------------------------|
E|----------------------------------2-2-2-2-2-2-2-2-3------------------------|

Lyrics:
Verse 1
She's sitting at the table, the hours get later
He was supposed to be here, she's sure he would have called
She waits a little longer, there's no one in the driveway
No one's said they've seen him, why, is something wrong?
She looks back to the window, suddenly the phone rings
A voice says something's happened, that she should come right now
Her mind goes to December, she thinks of when he asked her
He bent down on his knees first, and he said...

Chorus 1
I want you forever, forever and always
Through the good and the bad and the ugly
We'll grow old together
Forever and always

Verse 2
She pulls up to the entrance
She walks right to the front desk
They lead her down a million halls, a maze that's never ending
They talk about what happened but she can barely hear them
She tries to keep a straight face as she walks into the room
She sits by his bedside, holds his hand too tight
They talk about the kids they're gonna have and the good life
The house on the hillside, where they would stay

Chorus 2
Stay there forever, forever and always
Through the good and the bad and the ugly
We'll grow old together, and always remember
Whether rich or for poor or for better
We'll still love each other, forever and always

Bridge
Then she gets an idea and calls in the nurses
Brings up the chaplain and he says a couple verses
She borrows some rings from the couple next door
Everybody's laughing as the tears fall on the floor
She looks into his eyes, and she says...

Chorus 3
I want you forever, forever and always
Through the good and the bad and the ugly
We'll grow old together, and always remember
Whether happy or sad or whatever
We'll still love each other, forever and always
Forever and always, forever and always

She finishes the vows but the beeps are getting too slow
His voice is almost too low
As he says, I love you forever, forever and always
Please just remember even if I'm not there
I'll always love you, forever and always


| /  slide up
| \  slide down
| h  hammer-on
| p  pull-off
| ~  vibrato
| +  harmonic
| x  Mute note
===============================================================================
Comments