Papa Roach - Walking Thru Barbed Wire Chords & Tabs

 

Walking Thru Barbed Wire Chords & Tabs

Papa Roach Chords & Tabs

Version: 2 Type: Tab 0 ratings
1 star 2 stars 3 stars 4 stars 5 stars
comments

Walking Thru Barbed Wire Tab

   
Artist: Papa Roach
Title: Walking Thru Barbed Wire
Album: ...Let 'Em Know!
Lyrics: Jacoby Shaddix
Music: Horton, Esperance, Buckner
Transcribed by: Spooky Mike
Email: Amandas_Lestat@hotmail.com

[ Tab from: http://www.guitartabs.cc/tabs/p/papa_roach/walking_thru_barbed_wire_tab_ver_2.html ]
MAIN RIFF
e---------------------
B---------------------
G---------------------
D-7-7-7--3-3-3-3--2-2-
A-7-7-7--3-3-3-3--2-2-
E-5-5-5--1-1-1-1--0-0-
                                                                              
RIFF 2
e--------------
B--------------
G-2-2-2--55555-
D-0-0-0--33333-
A--------------
E--------------
                                                                              
VERSE
e-----------------------
B---------------2-2-2-2-
G---------------2-2-2-2-
D-3-3-3--3-3-3--0-0-0-0-
A-3-3-3--3-3-3----------
E-1-1-1--1-1-1----------
"wish I could see you for one last time..."
                                                                              
CHORUS
e----------------------------------
B----------------------------------
G------------------------------2-2-
D-3-3-3--3-3-3---3-3-3--3-3-3--0-0-
A-3-3-3--3-3-3---3-3-3--3-3-3------
E-1-1-1--1-1-1---1-1-1--1-1-1------
"bloody faced, kissing death, walking thru barbed wire..."
                                             
INTERLUDE
e-------------
B-------------
G-------------
D-------77777-
A-8-8-8-55555-
E-6-6-6-------
                                                                              
Lyrics:

VERSE ONE:
Wish I could see you for one last time
Wish I could say goodbye to you
It's hard to deal with you dying
It's time to say goodbye to you

CHORUS:
Bloody faced
Kissing death
Walking thru barbed wire
I'll let you go
Let me go
Digging through myself

VERSE TWO:
Good luck in your next life
Walk as tall as the trees
Be gentle as spring winds
And have the warmth of the summer sun

CHORUS

VERSE THREE:
I would die, die for you
I'd walk right thru barbed wire
I'll blame myself for your death
It's tearing me apart

OUTRO:
Let you go
Let me go
Walking thru barbed wire
Yeah, yea-ah...
Comments