Papa Roach - Walking Through Barbed Wire Chords & Tabs

 

Walking Through Barbed Wire Chords & Tabs

Papa Roach Chords & Tabs

Version: 6 Type: Tab 0 ratings
1 star 2 stars 3 stars 4 stars 5 stars
comments

Walking Through Barbed Wire Tab

There is also a earlier virson of this song with less chords but
are from this. This is the version from the LoveHateTragedy album.
IT IS AN EASY SONG SO YOU SHOULD BE ABLE TO UNDERSTAND IT ALL WITH
REFERAL TO LISTINING TO IT.ENJOI!

INTRO/CHORUS (4X)          

|-----------------|
|-----------------|
|-2-2-2-----------|
|-2-2-2-----2-2-2-|
|------3333-2-2-2-|
|------1111-------|

END ON

|-----------------------------------------------------|
|-----------------------------------------------------|
|-2-2-2-55555--2-2-2-55555--2-2-2-55555--2-2-2-5555/4-|
|-2-2-2-33333--2-2-2-33333--2-2-2-33333--2-2-2-3333/2-|
|-----------------------------------------------------|
|-----------------------------------------------------|


VERSE                                                 
 YOU CAN TELL WHEN TO DO EACH ENDIND                                 
|-----------------------------------|-------------------|--------------------|
|-----------------------------------|-------------------|--------------------|
|-----------------------------------|-------------------|--------------------|
|-----------------------/2----------|--------------/2---|--------------------|
|-3-33----*3-33-----3333/2----3-33--|****--*3-33-33/2---|--****--*3-33-33/4--|
|-1-11----*1-11-----1111------1-11--|****--*1-11-11-----|--****--*1-11-11/2--|


PRE-CHORUS
[ Tab from: http://www.guitartabs.cc/tabs/p/papa_roach/walking_through_barbed_wire_tab_ver_6.html ]
|--------------------------------------------|
|--------------------------------------------|
|--------------------------------------------|
|--------------------------------------------|
|-7-7-7----7\5-5-5----5\3-3-3---3-3-3--5-5-5-|
|-5-5-5----5\3-3-3----3\1-1-1---1-1-1--3-3-3-|


BRIDGE
                                      AT VERY END OF SONG
|----------------------------------|--------|
|----------------------------------|--------|
|----------------------------------|--------|
|----------------------------------|--------|
|-3-3-3----5-5-5----7-7-7----5-5-5-|-5-4-3~-|
|-1-1-1----3-3-3----5-5-5----3-3-3-|-3-2-1~-|


SOLO

|-------------------------------------------------|
|-------------------------------------------------|
|-2-2-2-55555-2-2-2-55555-2-2-2-55555-2-2-2-5-4-3-|
|-2-2-2-33333-2-2-2-33333-2-2-2-33333-2-2-2-3-2-1-|
|-------------------------------------------------|
|-------------------------------------------------|

SOLO CONT.

|----------------------------------------------------------|
|----------------------------------------------------------|
|-2-2-2-77777-2-2-2-7777/99\77-2-2-2-77777-2-2-2-7-7-99-77-|
|-2-2-2-55555-2-2-2-5555/77\55-2-2-2-55555-2-2-2-5-5-77-55-|
|----------------------------------------------------------|
|----------------------------------------------------------|


ORDER:
INTRO
END ON
VERSE
CHORUS
VERSE
PRE-CHORUS
CHORUS
VERSE
PRE-CHORUS
CHORUS
BRIDGE
SOLO
BRIDGE
END RIFF.

I HOPE YOU CAN BENIFIT FROM THIS TAB, I KNOW I HAVE.
QUESTIONS/COMMENTS?E-MAIL ME AT kornflipsk8er@yahoo.ca
Comments