Papa Roach - Walking Through Barbed Wire Chords & Tabs

 

Walking Through Barbed Wire Chords & Tabs

Papa Roach Chords & Tabs

Version: 5 Type: Tab 0 ratings
1 star 2 stars 3 stars 4 stars 5 stars
comments

Walking Through Barbed Wire Tab

Artist	:Papa Roach
Album	:lovehatetragedy
Song	:walking thru barbed wire
Transcribed by	:B Simon
Date:	19-07-2002

Jerry's guitar is tuned in low D

Intro
e|-------------------------------------------------|
b|-------------------------------------------------|
g|--2-2-2------------------------------------------|
d|--2-2-2-3-3-3-2----------------------------------| 6 x
a|--------3-3-3-2----------------------------------|
D|--------3-3-3-2----------------------------------|

e|-------------------------------------------------|
b|-------------------------------------------------|
g|--2-2-2-5-5-5------------------------------------|
d|--2-2-2-3-3-3------------------------------------| 4 x
a|-------------------------------------------------|
D|-------------------------------------------------|

Verse
e|-------------------------------------------------|
b|-------------------------------------------------|
g|-------------------------------------------------|
d|--3-3-3---3-3-3---3-3-3-2-2-2-3-3----------------| 8 x
a|--3-3-3---3-3-3---3-3-3-2-2-2-3-3----------------|
D|--3-3-3---3-3-3---3-3-3-2-2-2-3-3----------------|
[ Tab from: http://www.guitartabs.cc/tabs/p/papa_roach/walking_through_barbed_wire_tab_ver_5.html ]
Chorus
e|-------------------------------------------------|
b|-------------------------------------------------|
g|-------------------------------------------------|
d|--7-7-7---5-5-5---7/3-3-3---3-3-3--5-5-----------| 2 x
a|--7-7-7---5-5-5---7/3-3-3---3-3-3--5-5-----------|
D|--7-7-7---5-5-5---7/3-3-3---3-3-3--5-5-----------|

e|-------------------------------------------------|
b|-------------------------------------------------|
g|-------------------------------------------------|
d|--7-7-7-3-2--------------------------------------| 8 x
a|--7-7-7-3-2--------------------------------------|
D|--7-7-7-3-2--------------------------------------|

Bridge
e|-------------------------------------------------|
b|-------------------------------------------------|
g|-------------------------------------------------|
d|--3-3-3---5-5-5---7-7-7---10-10-10---------------| 1 x
a|--3-3-3---5-5-5---7-7-7---10-10-10---------------|
D|--3-3-3---5-5-5---7-7-7---10-10-10---------------|

Solo (think it is something like this)
e|-------------------------------------------------|
b|-------------------------------------------------|
g|----7-9-7----------------------------------------|
d|--7-------7--------------------------------------| 6 x
a|-------------------------------------------------|
D|-------------------------------------------------|

This is again one of the best songs Papa Roach has ever made

If you have any comments or questions, or have any idea how the solo is played
please mail me:             b.simon@mail.com

Viva La Cucaracha
Comments