Papa Roach - Walking Through Barbed Wire Chords & Tabs

 

Walking Through Barbed Wire Chords & Tabs

Papa Roach Chords & Tabs

Version: 1 Type: Tab 0 ratings
1 star 2 stars 3 stars 4 stars 5 stars
comments

Walking Through Barbed Wire Tab

I was just mucking about trying to play another song and 
stumbled across this, what I thought sounded like walking thru Barbed
Wire, so if you have any complaints or anything to add to
it like the solo part (Im working on it!) or any mistakes
then email me @

BIGfergie2k@hotmail.com

Enjoy

Intro Riff 1
e--------------------------------------------------------
B--------------------------------------------------------
G---2-2-2------------------------------------------------
D---2-2-2-------------2-2-2------------------------------ X6
A------------3-3-3-3--2-2-2------------------------------
E------------1-1-1-1-------------------------------------

You'll need to listen to the song to get the rythym but it repeats 
this for 6 then it goes to

riff 2
e--------------------------------------------------------
B--------------------------------------------------------
G---2-2-2-----5555--------------------------------------- 
D---2-2-2-----3333--------------------------------------- X4
A--------------------------------------------------------
E--------------------------------------------------------

need to listen to song to get rythm

riff 3
[ Tab from: http://www.guitartabs.cc/tabs/p/papa_roach/walking_through_barbed_wire_tab.html ]
e--------------------------------------------------------
B--------------------------------------------------------
G--------------------------------------------------------
D---------------------2-2-2-2---------------------------- x 6
A--3-3-3------3-3-3---2-2-2-2----------------------------
E--1-1-1------1-1-1--------------------------------------


this plays twice then the verse starts " wish I could see you
for one last time" then play four times then play the chorus

riff 4
e--------------------------------------------------------
B--------------------------------------------------------
G--------------------------------------------------------
D------------------------------------2--2---------------- x2
A---3-3-3-----3-3-3---3-3-3--3-3-3---2--2----------------
E---1-1-1-----1-1-1---1-1-1--1-1-1-----------------------

"bloody faced kissing death"

then back to riff 1 and listen to the song to get the timing and rythm
right

solo
e--------------------------------------------------------
B---2-2-2----5555----------------------------------------
G---2-2-2----3333---------------------------------------- x4
D-------------------------------------------------------- 
A--------------------------------------------------------
E--------------------------------------------------------


e--------------------------------------------------------
B--------------------------------------------------------
G------------2222---------------------------------------- x4
D--3-3-3-----2222---------------------------------------- 
A--1-1-1-------------------------------------------------
E--------------------------------------------------------


If you havent heard this song I recomend you download it asap!
Let me know if it sounds right or wrong I'd be more than glad to
know! Peace out fellow geetarists!




Tabbed by bigergie2k106 30/8/2001
Comments