Papa Roach - Time And Time Again Chords & Tabs

 

Time And Time Again Chords & Tabs

Papa Roach Chords & Tabs

Version: 4 Type: Tab 0 ratings
1 star 2 stars 3 stars 4 stars 5 stars
comments

Time And Time Again Tab

   
Papa Roach
Time and time again
Tabbed by A.C.L.(tlosapro@aol.com)

Tuning C G C F A D 

Intro
D)-----------------------------------------|
A)-----------------------------------------|
F)-----------------------------------------|
C)--4-4-4--6-6-6--7-7-7--9-9-9--11--14-----|
G)--4-4-4--6-6-6--7-7-7--9-9-9--11--14-----|
C)--4-4-4--6-6-6--7-7-7--9-9-9--11--14-----| x3

D)---------------------------------------------------------|
A)---------------------------------------------------------|
F)---------------------------------------------------------|
C)---------------------------------------------------------|
G)---------------------------------------------------------|
C)--14-1411--1414-11--14-14-11-14-14-11-14-14-1111---|

Verse
D)-----------------------------------------|
A)-----------------------------------------|
F)-----------------------------------------|
C)-----------------------------------------|
G)-----------------------------------------|
C)--7-74--7-7-4-7-7-4--7-7-4--7-7-4--4--|

D)-----------------------------------------|
A)-----------------------------------------|
F)-----------------------------------------|
C)-----------------------------------------|
G)---4-4-7--4-4-7--4-4-7--4-4-7--4-4-7--4--|
C)-----------------------------------------|
[ Tab from: http://www.guitartabs.cc/tabs/p/papa_roach/time_and_time_again_tab_ver_4.html ]
D)-----------------------------------------|
A)-----------------------------------------|
F)-----------------------------------------|
C)-----------------------------------------|
G)-----------------------------------------|
C)--7-74--7-7-4-7-7-4--7-7-4--7-7-4--4--|

D)-----------------------------------------|
A)-----------------------------------------|
F)-----------------------------------------|
C)------------------------x-x-6---x-x-7----|
G)----4-4-7--4-4-7--4-4---x-x-6--x-x-7----|
C)------------------------x-x-6---x-x-7----|


Chorus
D)--------------------------------------------------------|
A)--------------------------------------------------------|
F)--------------------------------------------------------|
C)-----8------11-----4-----6-----8-----11-----4-----2-----|
G)-----8------11-----4-----6-----8-----11-----4-----2-----|
C)----8----11-----4-----6-----8-----11-----4-----2-----|

Riff 3
D)----------------------------------------------------------|
A)----------------------------------------------------------|
F)---6-6-6-6--6-6-6-6--6-6-6-----9-9-9-9--9-9-9-9--9-9-9----|
C)---6-6-6-6--6-6-6-6--6-6-6-----9-9-9-9--9-9-9-9--9-9-9----|
G)---4-4-4-4--4-4-4-4--4-4-4-----7-7-7-7--7-7-7-7--7-7-7----|
C)--4-44-4--4-4-4-4--4-4-4-----7-7-7-7--7-7-7-7--7-7-7----|

D)----------------------------------------------------------|
A)----------------------------------------------------------|
F)----------------------------------------------------------|
C)---0-0-0-0--0-0-0-0---0-0-0-----2-2-2-2--2-2-2-2--2-2-2---|
G)---0-0-0-0--0-0-0-0---0-0-0-----2-2-2-2--2-2-2-2--2-2-2---|
C)--00-0-0-0-0-0-0---0-0-0-----2-2-2-2--2-2-2-2--2-2-2---|
Comments