Papa Roach - Time And Time Again Chords & Tabs

 

Time And Time Again Chords & Tabs

Papa Roach Chords & Tabs

Version: 2 Type: Tab 0 ratings
1 star 2 stars 3 stars 4 stars 5 stars
comments

Time And Time Again Tab

   
Artist:Papa Roach
Song:Time and time again
Album:LOVEHATETRAGEDY
Tunining: D,A,D,G,B,e

Into: Use wah                              after 3rd time repeat 
                                           this 5 times
e---------------------------------------3 ------------------------
B---------------------------------------t ------------------------
G---------------------------------------i ------------------------
D--4h6-6-6/7-7-7/9-9-9/11-11-11/14-14---m -14-14--11--------------
A--4h6-6-6/7-7-7/9-9-9/11-11-11/14-14---e -14-14--11--------------
D--4h6-6-6/7-7-7/9-9-9/11-11-11/14-14---s -14-14--11--------------

Verse: With wah

e-----------------------------------------------------------------
B-----------------------------------------------------------------
G-----------------------------------------------------------------
D-----------------------------------------------------------------
A----------------------------------7-7-4-4-7-7-4-4-7-7-4-4-7-7-4-4
D--7-7-4-4-7-7-4-4-7-7-4-4-7-7-4-4--------------------------------

End part of verse:

e-----------
B-----------
G-----------
D-x-6-x-7---
A-x-6-x-7---
D-x-6-x-7---

Chorus: " Time and time again you think about yourself before you
think about me"
[ Tab from: http://www.guitartabs.cc/tabs/p/papa_roach/time_and_time_again_tab_ver_2.html ]
           1st time                    2nd time
e---------------------------- -------------------------------------
B---------------------------- -------------------------------------
G---------------------------- ----------------------------8--------
D-8-----11----/15----4---6--- --8-----11------/15-----4---8--------
A-8-----11----/15----4---6--- --8-----11------/15-----4---6--------
D-8-----11----/15----4---6--- --8-----11------/15-----4---6--------

Bridge: "Your so selfish.........."

e------------------------------------------------------------------
B------------------------------------------------------------------
G-6666---6666---6666-9999---9999---9999----------------------------
D-6666---6666---6666-9999---9999---9999--/12---0000-0000-0000------
A-4444---4444---4444-7777---7777---7777--/12---0000-0000-0000------
D-4444---4444---4444-7777---7777---7777--/12---0000-0000-0000------

  1st time                        4th time
 
e----------------------- -------------------------------------------
B----------------------- -------------------------------------------
G----------------------- -------------------------------------------
D-2222-2222-2222-------- ---2-2-2-2-2-2-2-2-------------------------
A-2222-2222-2222-------- ---2-2-2-2-2-2-2-2-------------------------
D-2222-2222-2222-------- ---2-2-2-2-2-2-2-2-------------------------
                         pm . . . . . . . .
Comments