Papa Roach - Take Me Chords & Tabs

 

Take Me Chords & Tabs

Papa Roach Chords & Tabs

Version: 5 Type: Tab

Take Me Tab

   
Band: Papa Roach
Song: Take Me
Album: Getting Away With Murder
Tabbed by: Cody Fuller, rockerc
Distortion thru whole song
Drop D tuning (D A D G B E)

This is 100% right, I've watched live performances on Daily Download and their new DVD 
and Murderous to get it right.


Intro:

|----------------------------|
|----------------------------|
|6-6-xx---------7-7-xx-------| x4
|6-6-xx--4-4-xx-7-7-xx--7-7--|
|4-4-xx--4-4-xx-5-5-xx--7-7--|
|--------2-2-xx---------7-7--|


Verse (play twice)
|--------------------------|
|--------------------------|
|--------------------------|  Palm Mute
|-------6-6-6----------5\3-|
|-4-4-4-------8-8-8----5\3-|
|----------------------5\3-|

|--------------------------|
|--------------------------|
|--------------------------|  Palm Mute
|-------7-7-7----------3/5-|
|-4-4-4-------8-8-8----3/5-|
|----------------------3/5-|

Verse fill

|--------------------------|
|--------------------------|
|--------------------------|  Palm Mute
|-------6-6-6----------5\3-|
|-4-4-4-------8-8-8----5\3-|
|----------------------5\3-|

|----------------------------------|
|----------------------------------|
|----------------------------------|  Palm Mute
|-------7-7-7----------------------|
|-4-4-4--------10-10-10-10-8-8-8-8-|
|----------------------------------|

|-------------|
|-------------|
|-2---------4-|
|-2----2----4-|
|-0----2----2-|
|------2------|

Pre-Chorus
[ Tab from: http://www.guitartabs.cc/tabs/p/papa_roach/take_me_tab_ver_5.html ]
|-------------------------------------------------------------|
|-------------------------------------------------------------|
|-------------------------------------------------------------|
|12--1212-10-9-9-5-5-7-7--12--1212-10-9-9-5-5-3-3-3-3-3-3-3-3-|
|12--1212-10-9-9-5-5-7-7--12--1212-10-9-9-5-5-3-3-3-3-3-3-3-3-|
|12--1212-10-9-9-5-5-7-7--12--1212-10-9-9-5-5-3-3-3-3-3-3-3-3-|


Chorus (same as intro except play twice instead of four)

repeat verse
repeat verse fill
repeat pre-chorus
repeat chorus (same as intro)

bridge
|---------------------------------|
|---------------------------------|
|6-------------------6--7--8--2---|
|6---------------xxxx6--7--8--2-4-|
|4---------------xxxx4--5--6--0-4-|
|----------------xxxx-----------2-|

play intro

solo
|-----------------------------------------------------------------------------------|
|-----------------------------------------------------------------------------------|
|6------------------------------------7---------------------------------------------|
|6------------------4-----------------7-----------------7---------------------------|
|4--2-2-4-4-4-4-2---4--5-5-7-7-7-7-5--5--3-3-5-5-5-5-3--7--12-12-12-12-11-11-11-11--|
|-------------------2-----------------------------------7---------------------------|

Pre-Chorus

|-------------------------------------------------------------|
|-------------------------------------------------------------|
|-------------------------------------------------------------|
|12--1212-10-9-9-5-5-7-7--12--1212-10-9-9-5-5-----------------|//////////////Pick Slide
|12--1212-10-9-9-5-5-7-7--12--1212-10-9-9-5-5-----------------|//////////////Pick Slide
|12--1212-10-9-9-5-5-7-7--12--1212-10-9-9-5-5-----------------|//////////////Pick Slide

repeat chorus (same as intro, play six times this time)


| /  slide up
| \  slide down
| h  hammer-on
| p  pull-off
| ~  vibrato
| +  harmonic
| x  Mute note