Papa Roach - Take Me Chords & Tabs

 

Take Me Chords & Tabs

Papa Roach Chords & Tabs

Version: 4 Type: Tab 0 ratings
1 star 2 stars 3 stars 4 stars 5 stars
comments

Take Me Tab

   
Band: Papa Roach
Song: Take Me
Album: Getting Away With Murder
Tabbed by: rockerc
Distortion thru whole song
Drop D tuning (D A D G B E)


I looked at the other tabs and I played them and they didn't sound right so I made my
own. I'm completely 100% sure it's right because I have the live version recorded from
when Papa Roach was on Daily Download on Fuse last month.


Intro:

|----------------------------|
|----------------------------|
|6-6-xx---------7-7-xx-------| x4
|6-6-xx--4-4-xx-7-7-xx--8-8--|
|4-4-xx--4-4-xx-5-5-xx--8-8--|
|--------2-2-xx---------6-6--|


Verse (play twice)
|------------------------|
|------------------------|
|------------------------|   Palm Mute
|-------6-6-6----------3-|
|-4-4-4-------8-8-8----3-|
|----------------------3-|

|------------------------|
|------------------------|
|------------------------|  Palm Mute
|-------7-7-7----------5-|
|-4-4-4-------8-8-8----5-|
|----------------------5-|

Verse fill

|-----------------------|
|-----------------------|
|-----------------------|  Palm Mute
|-------6-6-6---------3-|
|-4-4-4-------8-8-8---3-|
|---------------------3-|

|----------------------|
|----------------------|
|----------------------|
|-------5/7777/8888\6--|
|-4-4-4----------------|
|----------------------|
[ Tab from: http://www.guitartabs.cc/tabs/p/papa_roach/take_me_tab_ver_4.html ]
|------------|
|------------|
|-2----4-----|
|-2----4-----|
|-0----2-----|
|------------|

Pre-Chorus

|----------------------------------------------------------------|
|----------------------------------------------------------------|
|----------------------------------------------------------------|
|12--1212-10-9-9-7-7-10-10--12--1212-10-9-9-7-7-1010101010101010-|
|12--1212-8--7-7-5-5-8--8---12--1212-10-9-9-7-7-1010101010101010-|
|10--1010-8--7-7-5-5-8--8---10--1010-8--7-7-5-5-8-8-8-8-8-8-8-8--|


Chorus (same as intro except play twice)

repeat verse
repeat verse fill
repeat pre-chorus
repeat chorus (same as intro, play four times this time)

bridge
|---------------------------------|
|---------------------------------|
|6---------------xxxx6--7--8--2---|
|6---------------xxxx6--7--8--2-4-|
|4---------------xxxx4--5--6--0-4-|
|-------------------------------2-|

play intro twice

solo
|---------------------------------------------------|
|---------------------------------------------------|
|---------------------------------------------------|
|------------4-4---------2-4---------6-7------------|
|------------4-4-4/777\6-2-4---------6-7-/121212\11-|
|5-5-5/888\6-4-4---------0-2-5/888\6-4-5------------|

repeat pre-chorus and pick slide up on the top 3 strings at the end
repeat chorus (same as intro, play six times this time)


| /  slide up
| \  slide down
| h  hammer-on
| p  pull-off
| ~  vibrato
| +  harmonic
| x  Mute note
Comments