Papa Roach - Stop Looking Start Seeing Chords & Tabs

 

Stop Looking Start Seeing Chords & Tabs

Papa Roach Chords & Tabs

Version: 2 Type: Tab 0 ratings
1 star 2 stars 3 stars 4 stars 5 stars
comments

Stop Looking Start Seeing Tab

   
Band- Papa Roach
Song- Stop Looking Start Seeing

Tuning: Standard(E B G D A E)

Intro:

E|--------------------------------------------------|
B|--------------------------------------------------|
G|-8-8-8-8-8-8-8-8--6-6-6-6-6-6-6-6-6--8-8-8-8------|
D|-8-8-8-8-8-8-8-8--x-x-x-x-x-x-x-x-x--x-x-x-x------|
A|-6-6-6-6-6-6-6-6--4-4-4-4-4-4-4-4-4--6-6-6-6------|
E|--------------------------------------------------|

Verse 1:

  p.m.-|      p.m-|      p.m-------------------------------------------------------|
E|---------------------------------------------------------------------------------|
B|---------------------------------------------------------------------------------|
G|---------------------------------------------------------------------------------|
D|-------4h6---------4-------------------4-4-4-4-6-6-6-6-4-4-4-4-6-6-6-6-----------|
A|-6-6----------6--------6-6-6-6-4-4-4-4-------------------------------------------|
E|---------------------------------------------------------------------------------|

Verse 1a (Same as above except don't palm mute the last 8 notes or so):

  p.m.-|      p.m-|      p.m-------------------------------------------------------|
E|---------------------------------------------------------------------------------|
B|---------------------------------------------------------------------------------|
G|---------------------------------------------------------------------------------|
D|-------4h6---------4-------------------4-4-4-4-6-6-6-6-4-4-4-4-6-6-6-6-----------|
A|-6-6----------6--------6-6-6-6-4-4-4-4-------------------------------------------|
E|---------------------------------------------------------------------------------|


Pre-Chorus:

E|--------------------------------------------------------------------------------|
B|--------------------------------------------------------------------------------|
G|-----------------4-4------------------------------------------------------------|
D|-2-2---2-2--4-4--4-4----2-2--4-4------------------------------------------------|
A|-2-2---2-2--4-4--2-2----2-2--4-4------------------------------------------------|
E|-0-0---0-0--2-2---------0-0--2-2------------------------------------------------|

Chrous:
[ Tab from: http://www.guitartabs.cc/tabs/p/papa_roach/stop_looking_start_seeing_tab_ver_2.html ]
E|--------------------------------------------------------------------------------|
B|--------------------------------------------------------------------------------|
G|--4-4-4-4-4-4-4-4---------------------------------------------------------------|
D|--4-4-4-4-4-4-4-4--8-8-8-8-8-8-8-8--4-4-4-4-4-4-4-4--6-6-6-6-6-6-6-6------------|
A|--2-2-2-2-2-2-2-2--8-8-8-8-8-8-8-8--4-4-4-4-4-4-4-4--6-6-6-6-6-6-6-6------------|
E|-------------------6-6-6-6-6-6-6-6--2-2-2-2-2-2-2-2--4-4-4-4-4-4-4-4------------|

E|--------------------------------------------------------------------------------|
B|--------------------------------------------------------------------------------|
G|--4-4-4-4-4-4-4-4---------------------------------------------------------------|
D|--4-4-4-4-4-4-4-4--8-8-8-8-8-8-8-8--4-4-4-4-4-4-4-4--6-6-6-6-6-6-6-6------------|
A|--2-2-2-2-2-2-2-2--8-8-8-8-8-8-8-8--4-4-4-4-4-4-4-4--6-6-6-6-6-6-6-6------------|
E|-------------------6-6-6-6-6-6-6-6--2-2-2-2-2-2-2-2--4-4-4-4-4-4-4-4------------|


Solo:

E|--------------------------------------------------------------------------------|
B|--------------------------------------------------------------------------------|
G|---------4---------------4--------------4--------------4------------------------|
D|----4-6----6-4-6-----4-6---6-4-6----4-6---6-4-6----4-6---6-4-6------------------|
A|-s6----------------4--------------6--------------4------------------------------|
E|--------------------------------------------------------------------------------|

E|--------------------------------------------------------------------------------|
B|--------------------------------------------------------------------------------|
G|--------------------------------------------------------------------------------|
D|--6b8r6--6b8r6--6b8r6--6b8r6--6b8r6--6b8r6--6b8r6--6b8r6--6b8r6--6b8r6----------|
A|--------------------------------------------------------------------------------|
E|--------------------------------------------------------------------------------|

Fill 1:

E|----------------|
B|----------------|
G|--2--2----------|
D|--2--2----------|
A|--0--0----------|
E|----------------|

Fill 2:

E|----------------|
B|----------------|
G|--8-6-6---------|
D|--8-6-x---------|
A|--6-4-4---------|
E|----------------|

Fill 3:

E|----------------|
B|----------------|
G|----------------|
D|--0-0-0-2-------|
A|--0-0-0-2-------|
E|--0-0-0-0-------|

Song Order -

Intro: 2x

Verse 1: 3x
Verse 1a: 1x

Chorus: 1x
Fill 1: 1x

Verse 1: 3x
Verse 1a: 1x

Pre-Chorus: 1x
Chorus: 1x
Fill 1: 1x

Solo: 2x

Pre-Chorus: 1x
Chorus: 1x
Fill 2: 1x

Chorus: 1x
Fill 3: 4x
Comments