Papa Roach - Snakes Chords & Tabs

 

Snakes Chords & Tabs

Papa Roach Chords & Tabs

Version: 4 Type: Tab 0 ratings
1 star 2 stars 3 stars 4 stars 5 stars
comments

Snakes Tab

SONG:SNAKES
Artist:Papa Roach
Album:INFEST
Tabbed by:MAthew renn s. alibangbang/RoCk3r_GuItArIsT/mat_cyclops15@yahoo.com
DATE:Jan 24, 2003

Hey! dude,this is my first tab i tab a papa roach song, this not the real chords
of papa roach and how they play it, but the sound much closer to the song and not
BAD :(,AnY WAY THIS IS A COOL SONG HAVE FUN)And i'm sure it's 90% correct.

TUNNING
DADGBE

INTRO:2x
Part I
e|-----------------------------------------------------------------|
b|-----------------------------------------------------------------|
g|-555555555555--9999999999--1010101010101010---9999999999999------|
D|-555555555555--9999999999--1010101010101010---9999999999999------|
A|-333333333333--7777777777---8-888-8-88-8-8----7777777777777------|
D|-----------------------------------------------------------------|


Part II
e|----------------------------------------------------------------------------|
b|----------------------------------------------------------------------------|
g|-9-9-9-9-9-9-9-9---7-7-7-7-7-7-7-7-7--9-9-9-9-9-9-9/-10-10-10-10-10-10------|
D|-x-x-x-x-x-x-x-x---x-x-x-x-x-x-x-x-x--x-x-x-x-x-x-x/--x-x--x-x-x-x-x-x------|
A|-7-7-7-7-7-7-7-7---5-5-5-5-5-5-5-5-5--7-7-7-7-7-7-7/--8-8--8-8-8-8-8-8------|
D|----------------------------------------------------------------------------|

Verse I
e|----------------------------------------------------------------------------|
b|----------------------------------------------------------------------------|
g|-9-9-9-9-9-9-9-9---7-7-7-7-7-7-7-7-7--9-9-9-9-9-9-9/-10-10-10-10-10-10------|
D|-x-x-x-x-x-x-x-x---x-x-x-x-x-x-x-x-x--x-x-x-x-x-x-x/--x-x--x-x-x-x-x-x------|
A|-7-7-7-7-7-7-7-7---5-5-5-5-5-5-5-5-5--7-7-7-7-7-7-7/--8-8--8-8-8-8-8-8------|
D|----------------------------------------------------------------------------|

2nd part of verse
e|----------------------------------------------------------------------------
b|----------------------------------------------------------------------------
g|-9-9-9-9-9-9-9-9---7-7-7-7-7-7-7-7-7--9-9-9-9-9-9-9/-10-10-10-10-10-10------
D|-x-x-x-x-x-x-x-x---x-x-x-x-x-x-x-x-x--x-x-x-x-x-x-x/--x-x--x-x-x-x-x-x------
A|-7-7-7-7-7-7-7-7---5-5-5-5-5-5-5-5-5--7-7-7-7-7-7-7/--8-8--8-8-8-8-8-8------
D|----------------------------------------------------------------------------

e|---------------------------------|
b|---------------------------------|
g|---------------------------------|
D|-6/-8-8-8--6/-8-8-8--------------|
A|-6/-8-8-8--6/-8-8-8--------------|
D|-6/-8-8-8--6/-8-8-8--------------|


e|----------------------------------------------------------------------------|
b|----------------------------------------------------------------------------|
g|-9-9-9-9-9-9-9-9---7-7-7-7-7-7-7-7-7--9-9-9-9-9-9-9/-10-10-10-10-10-10------|
D|-x-x-x-x-x-x-x-x---x-x-x-x-x-x-x-x-x--x-x-x-x-x-x-x/--x-x--x-x-x-x-x-x------|
A|-7-7-7-7-7-7-7-7---5-5-5-5-5-5-5-5-5--7-7-7-7-7-7-7/--8-8--8-8-8-8-8-8------|
D|----------------------------------------------------------------------------|


Pre chorus:
e|---------------------------------|
b|---------------------------------|
g|---------------------------------|
D|-6/-8-8-8--6/-8-8-8--------------|
A|-6/-8-8-8--6/-8-8-8--------------|
D|-6/-8-8-8--6/-8-8-8--------------|



CHORUS:
e|---------------------------------------------------------------------|
b|---------------------------------------------------------------------|
g|---------------------------------------------------------------------|
D|-7-7-7-7-7---3-3-3-3-3-3--5-5-5-5-5-5-5--0--4p3-4p3------------------|
A|-7-7-7-7-7---3-3-3-3-3-3--5-5-5-5-5-5-5--0--4p3-4p3------------------|
D|-7-7-7-7-7---3-3-3-3-3-3--5-5-5-5-5-5-5--0--4p3-4p3------------------|

[ Tab from: http://www.guitartabs.cc/tabs/p/papa_roach/snakes_tab_ver_4.html ]
Verse:II(TURN TABLE SCRATCH)
e|----------------------------------------------------------------------------|
b|----------------------------------------------------------------------------|
g|-9-9-9-9-9-9-9-9---7-7-7-7-7-7-7-7-7--9-9-9-9-9-9-9/-10-10-10-10-10-10------|
D|-x-x-x-x-x-x-x-x---x-x-x-x-x-x-x-x-x--x-x-x-x-x-x-x/--x-x--x-x-x-x-x-x------|
A|-7-7-7-7-7-7-7-7---5-5-5-5-5-5-5-5-5--7-7-7-7-7-7-7/--8-8--8-8-8-8-8-8------|
D|----------------------------------------------------------------------------|


2nd part of verse
e|----------------------------------------------------------------------------|
b|----------------------------------------------------------------------------|
g|-9-9-9-9-9-9-9-9---7-7-7-7-7-7-7-7-7--9-9-9-9-9-9-9/-10-10-10-10-10-10------|
D|-x-x-x-x-x-x-x-x---x-x-x-x-x-x-x-x-x--x-x-x-x-x-x-x/--x-x--x-x-x-x-x-x------|
A|-7-7-7-7-7-7-7-7---5-5-5-5-5-5-5-5-5--7-7-7-7-7-7-7/--8-8--8-8-8-8-8-8------|
D|----------------------------------------------------------------------------|


e|---------------------------------|
b|---------------------------------|
g|---------------------------------|
D|-6h8-8-8--6h8-8-8----------------|
A|-6h8-8-8--6h8-8-8----------------|
D|-6h8-8-8--6h8-8-8----------------|



PRE CHORUS
e|---------------------------------------|
b|---------------------------------------|
g|---------------------------------------|
D|-8/--------0-0--8/----0-0--------------|
A|-8/--------0-0--8/----0-0--------------|
D|-8/--------0-0--8/----0-0--------------|

e|-------------------------------------------|
b|-------------------------------------------|
g|-9-9-9-9-9-9-9-9---10-10-10-10-------------|
D|-x-x-x-x-x-x-x-x---x--x--x--x--------------|
A|-7-7-7-7-7-7-7-7---8--8--8--8--------------|
D|-------------------------------------------|


e|---------------------------------|
b|---------------------------------|
g|---------------------------------| 3x
D|-6h8-8-8--6h8-8-8----------------|
A|-6h8-8-8--6h8-8-8----------------|
D|-6h8-8-8--6h8-8-8----------------|


CHORUS:
e|---------------------------------------------------------------------|
b|---------------------------------------------------------------------|
g|---------------------------------------------------------------------|
D|-7-7-7-7-7---3-3-3-3-3-3--5-5-5-5-5-5-5--0--4p3-4p3------------------|
A|-7-7-7-7-7---3-3-3-3-3-3--5-5-5-5-5-5-5--0--4p3-4p3------------------|
D|-7-7-7-7-7---3-3-3-3-3-3--5-5-5-5-5-5-5--0--4p3-4p3------------------|

BRIDGE:(Same as intro)
e|-----------------------------------------------------------------|
b|-----------------------------------------------------------------|
g|-555555555555--9999999999--1010101010101010---9999999999999------|
D|-555555555555--9999999999--1010101010101010---9999999999999------|  4x
A|-333333333333--7777777777---8-888-8-88-8-8----7777777777777------|
D|-----------------------------------------------------------------|

e|------------------------------------------------|
b|------------------------------------------------|
g|------------------------------------------------|
D|-77--77--------00--00----88--88---4p3--4p3------|
A|-77--77--------00--00----88--88---4p3--4p3------|
D|-77--77--------00--00----88--88---4p3--4p3------|


2ndCHORUS:
e|------------------------------------------------------------------------|
b|------------------------------------------------------------------------|
g|---------------------------7-7-7-7--------------------------------------|
D|-7-7-7-7-7---0-0-0-0-0-0---x-x-x-x---4p3--4p3---------------------------|
A|-7-7-7-7-7---0-0-0-0-0-0---5-5-5-5---4p3--4p3---------------------------|
D|-7-7-7-7-7---0-0-0-0-0-0-------------4p3--4p3---------------------------|

Outro:
e|----------------------------|
b|----------------------------|
g|----------------------------|
D|-4p3------------------------|  6x
A|-4p3------------------------|
D|-4p3------------------------|

e|---------------------------|
b|---------------------------|
g|---------------------------|
D|-7~~~~~~~~-----------------| Let it ring 
A|-7~~~~~~~~-----------------|
D|-7~~~~~~~~-----------------|

e|-----------------------------|
b|-----------------------------|
g|-----------------------------|
D|-7-7/------------------------|
A|-7-7/------------------------|
D|-7-7/------------------------|


So they're you go the 2nd version of snakes in ultimate-guitar.com of papa roach
i wanna grit my frendz Aryan Oyales and her bro.,MArk my best frend,and to all
who know me and especially to god for giving me this talent.
If you have any correction just e-mail me @ mat_cyclops15@yahoo.com

FROM:ME/RoCk3r_GuItArIsT
N.FAIRVIEW PHIL. FAIRMONT PARK SUBD. REGALADO AVE BANNING ST. Q.C 
THANK YOU!!!!! all
Comments