Papa Roach - Snakes Chords & Tabs

 

Snakes Chords & Tabs

Papa Roach Chords & Tabs

Version: 1 Type: Bass Tab 0 ratings
1 star 2 stars 3 stars 4 stars 5 stars
comments

Snakes Bass Tab

Artist: Papa Roach
Song: Snakes
Album: Infest
Tabbed by: A.B (purplel50@hotmail.com)
Date: 24/3 2001
Time started: 10:30
Time finished: 11:12


This is tabbed from fresh so please correct any wrong
doings.Uses fingers for playing this one.
Drop D tuning.

Wait for guitar bit then:

Verse:
G-----------------|---------------|---------------|
D-----------------|---------------|---------------|
A-----------------|---------------|---------------|
D-5-7-7-5-7-0-5-0-|-7-7-5-7-------|-0-5-0-8-8-8-8-|

G-----------------|---------------|---------------|---------------|
D-----------------|---------------|---------------|---------------|
A-----------------|---------------|---------------|---------------|
D-0-5-0-8-8-8-8---|---------------|---------------|---------------|
(Play 3 times,on fourth play this after
first two bars)

G-----------------|---------------|---------------|---------------|
D-----------------|---------------|---------------|---------------|
A-----------------|---------------|---------------|---------------|
D-0-5-0-8-8-8-8-8-|-7-8-8-8-8-----|---------------|---------------|


Verse changes slightly during third play:


G-----------------|---------------|---------------|---------------|
D-----------------|---------------|---------------|---------------|
A-----------------|---------------|---------------|---------------|
D-5-5-7-5-7-------|-5-5-7-5-7-----|-7-7-8-7-8-----|-7-7-8-7-8-----|
then back to normal
[ Tab from: http://www.guitartabs.cc/tabs/p/papa_roach/snakes_btab.html ]
Chorus:
G-----------------|---------------|---------------|--------------|
D-----------------|---------------|---------------|--------------|
A-----------------|---------------|---------------|--------------|
D-7-7-7-7-7-7-----|-3-3-3-3-3-3---|-0-0-0-0-0-0---|-3/2-2-3/2-2--|
(play 4 times)

Then (during scratching part):
G-----------------|---------------|---------------|-----------------|
D-----------------|---------------|---------------|-----------------|
A-----------------|---------------|---------------|-----------------|
D-0-5-0-7-7-7-----|-0-5-0-8-8-8---|-0-5-0-7-7-7---|-0-5-0-7-8-0-7-8-|


Change on fourth time:
G-----------------|---------------|---------------|---------------|
D-----------------|---------------|---------------|---------------|
A-----------------|---------------|---------------|---------------|
D-0-5-7-----------|-0-7-8---------|--5-5----------|---------------|



After Chorus goes like this:
G-----------------|---------------|----------------|----------------|
D-----------------|---------------|----------------|-7-7-7-7-7-7-7-7|
A-----------------|---------------|-8-8-8-8-8-8-8-8|----------------|
D-3-3-3-3-3-3-3-3-|-7-7-7-7-7-7-7-|----------------|----------------|
(play 4 times)
Then:
G-----------------|---------------|---------------|---------------|
D-----------------|---------------|---------------|---------------|
A-----------------|---------------|---------------|---------------|
D-7-7---7-7-------|-0-0---0-0-----|-8-8--8-8------|--2-2-3-2------|
(play 6 times)
Then:
G-----------------|-----------------|----------------|---------------|
D-----------------|-----------------|----------------|---------------|
A-----------------|-----------------|----------------|---------------|
D-3-2-3-2-3-2-3-2-|-3-2-3-2-3-2-3-2-|-3-2-3-2-3-2-3-2|---7(hold)-----|
AND:
G-----------------|
D-----------------|
A-----------------|
D-7-7-------------|
((END))

Comments