Papa Roach - Singular Indestructible Droid Chords & Tabs

 

Singular Indestructible Droid Chords & Tabs

Papa Roach Chords & Tabs

Version: 2 Type: Bass Tab

Singular Indestructible Droid Bass Tab

   
Artist: Papa Roach
Title: Singular Indestructible Droid
Album: LoveHateTragedy

Tuning: C G C F

My friend Tom Heath tabbed this. Copyright http://www.paparoachonline.com

INTRO (X2)
F|-----------------555555555555544--|
C|-2222222222225555---------------5-|
G|----------------------------------|
C|----------------------------------|

F|----------------------------------|
C|-2222222222225555-----------------|
G|-----------------333333333333322--|
C|--------------------------------3-|

CHORUS
F|------------------------------|
C|------------------------------|
G|------------------------------|
C|-02-52-020-7-5-4-02-52-020-79-|

F|--------------------------|
C|--------------------------|
G|--------------------------|
C|-02-52-020-7-5-4-02-52-02-|

VERSE
F|----------------------------------------------|
C|------------------------------------5555-3333-|
G|----------------------------------------------|
C|-02-02202055-455-4542-22-02202033-3-----------|

F|---------------------------------------------|
C|----------------------------------------3-35-|
G|---------------------------------------------|
C|-02-022-02055-455-4542-22-022-02033-3-33-3---|

PRE CHORUS (X2)
F|---------------|
C|---------------|
G|---------------|
C|-7-79-910-1012-|

CHORUS
F|------------------------------|
C|------------------------------|
G|------------------------------|
C|-02-52-020-7-5-4-02-52-020-79-|
[ Tab from: http://www.guitartabs.cc/tabs/p/papa_roach/singular_indestructible_droid_btab_ver_2.html ]
F|--------------------------|
C|--------------------------|
G|--------------------------|
C|-02-52-020-7-5-4-02-52-02-|

VERSE
F|----------------------------------------------|
C|------------------------------------5555-3333-| 
G|----------------------------------------------|
C|-02-02202055-455-4542-22-02202033-3-----------|

F|---------------------------------------------|
C|----------------------------------------3-35-|
G|---------------------------------------------|
C|-02-022-02055-455-4542-22-022-02033-3-33-3---|

PRE CHORUS (X2)
F|---------------|
C|---------------|
G|---------------|
C|-7-79-910-1012-|

CHORUS
F|------------------------------|
C|------------------------------|
G|------------------------------|
C|-02-52-020-7-5-4-02-52-020-79-|

F|--------------------------|
C|--------------------------|
G|--------------------------|
C|-02-52-020-7-5-4-02-52-02-|

BRIDGE
F|---------------------------|
C|---------------------------|
G|---------------------------| X2
C|-X-020-5-0-9--X--020-5-0-3-| 

F|-------------|
C|-------------|
G|-------------|
C|-02-02-02-02-|

CHORUS
F|------------------------------|
C|------------------------------|
G|------------------------------|
C|-02-52-020-7-5-4-02-52-020-79-|

F|--------------------------|
C|--------------------------|
G|--------------------------|
C|-02-52-020-7-5-4-02-52-02-|

F|-------------|
C|-------------|
G|-------------| X2
C|-02-02-02-02-|