Papa Roach - She Loves Me Not Chords & Tabs

 

She Loves Me Not Chords & Tabs

Papa Roach Chords & Tabs

Version: 8 Type: Tab 0 ratings
1 star 2 stars 3 stars 4 stars 5 stars
comments

She Loves Me Not Tab

   
Title:  She Loves Me Not
Artist:  Papa Roach
Album: lovehatetragedy
Tuning:  Drop C (C-G-C-F-A-D)
Tabbed by:  Andrew Jackson(iamtheoneandonlydrex@hotmail.com)

i got this from guitar one so if i didnt tab it exactly
right, forgive me.  i tried to show the strum pattern
as best as i could but it's not exactly right everywhere.
feel free to comment.  enjoy.


Verse :
d|--------|--------|-------|---------------------------------------| 
A|--------|--------|-------|---------------------------------------| 
F|--------|--------|-------|---------------------------------------| 
C|-X-9-9--|-X-5-5--|-X-2-2-|-X-4-4---X-X-X-4---4---X-X-------------| 
G|-X-9-9--|-X-5-5--|-X-2-2-|-X-4-4---X-X-X-4---4---X-X-------------| 
C|-X-9-9--|-X-5-5--|-X-2-2-|-X-4-4---X-X-X-4---4---X-X-------------| 

d|-----------|-------|-------|-------------------------------------| 
A|-----------|-------|-------|-------------------------------------| 
F|-----------|-------|-------|-------------------------------------| 
C|-X-9-(9)-9-|-X-5-5-|-X-2-2-|-X-4-4---X-X-X-0---X-X---------------| 
G|-X-9-(9)-9-|-X-5-5-|-X-2-2-|-X-4-4---X-X-X-0---X-X---------------| 
C|-X-9-(9)-9-|-X-5-5-|-X-2-2-|-X-4-4---X-X-X-0---X-X---------------| 

d|--------|--------|-------|---------------------------------------| 
C|--------|--------|-------|---------------------------------------| 
F|--------|--------|-------|---------------------------------------| 
C|-X-9-9--|-X-5-5--|-X-2-2-|-X-4-4---X-X-X-4---4---X-X-------------| 
G|-X-9-9--|-X-5-5--|-X-2-2-|-X-4-4---X-X-X-4---4---X-X-------------| 
C|-X-9-9--|-X-5-5--|-X-2-2-|-X-4-4---X-X-X-4---4---X-X-------------|

Pre-Chorus :
d|-----------------------------------------------------------------| 
A|-----------------------------------------------------------------| 
F|----------------11-11-7-7-----7-------------11-11-7-7-----7------| 
C|-X-9-(9)-9--X-X-X--X--X-X-----X---5-5---X-X-X--X--X-X-----X---2--| 
G|-X-9-(9)-9--X-X-9--9--5-5-5-5-5---5-5---X-X-9--9--5-5-5-5-5---2--| 
C|-X-9-(9)-9--X-X-------------------5-5-------------------------2--| 

d|-----------------------------------------------------------------| 
A|-----------------------------------------------------------------| 
F|----------------11-11-7-7-----7-------------11-11-7-7-----7------| 
C|-X-2-(2)-2--X-X-X--X--X-X-----X---4-4---X-X-X--X--X-X-----X------| 
G|-X-2-(2)-2--X-X-9--9--5-5-5-5-5---4-4---X-X-9--9--5-5-5-5-5------| 
C|-X-2-(2)-2--X-X-------------------4-4----------------------------| 

Chorus :
d|-----------------------------------------------------------------| 
A|-----------------------------------------------------------------| 
F|-----------------------------------------------------------------| 
C|-9--9--9---9---9-----9-9-9---9---9-----9-9-9---9---9-------------| 
G|-5--5--5---5---5-----7-7-7---7---7-----9-9-9---9---9-------------| 
C|-5--5--5---5---5-----7-7-7---7---7-----9-9-9---9---9-------------| 
[ Tab from: http://www.guitartabs.cc/tabs/p/papa_roach/she_loves_me_not_tab_ver_8.html ]
d|-----------------------------------------------------------------| 
A|-----------------------------------------------------------------| 
F|-----------------------------------------------------------------| 
C|-9--9--9---9---9-----9-9-9---9---9-----9-9-9---9---9-------------| 
G|-5--5--5---5---5-----7-7-7---7---7-----9-9-9---9---9-------------| 
C|-5--5--5---5---5-----7-7-7---7---7-----9-9-9---9---9-------------| 

d|-----------------------------------------------------------------| 
A|-----------------------------------------------------------------| 
F|-----------------------------------------------------------------| 
C|-9--9--9---9---9--X-5---5-----5--5-7---7-----7--7-9---9-9-9--9-9-| 
G|-9--9--9---9---9--X-5---5-----5--5-7---7-----7--7-9---9-9-9--9-9-| 
C|-9--9--9---9---9--X-5---5-----5--5-7---7-----7--7-9---9-9-9--9-9-| 

Bridge :
d|----------------------------------------------------2---2--------| 
A|----------------------------------------------------2---2--------| 
F|------------------------9-9-9---9---9-----4--4--4---4---4--------| 
C|-14-14-14---14---14-----7-7-7---7---7-----4--4--4---4---4--------| 
G|-12-12-12---12---12-----7-7-7---7---7-----2--2--2---2---2--------| 
C|-12-12-12---12---12-----7-7-7---7---7----------------------------| 

d|-----------2-----------------------------------------------------| 
A|-----------2-----------------------------------------------------| 
F|-4--4--4---4---4--4----------------------------------------------| 
C|-4--4--4---4---4--4-5-----5--------5---5-7---7--7-9--------------| 
G|-2--2--2---2---2--2-5-----5--------5---5-7---7--7-9--------------| 
C|--------------------5-----5--------5---5-7---7--7-9--------------| 

Outro :
d|-----------------------------------------------------------------| 
A|-----------------------------------------------------------------| 
F|-----------------------------------------------------------------| 
C|-5--5--5---5-----5--5-7-----7--7--7--7--7---7---7-9--------------| 
G|-5--5--5---5-----5--5-7-----7--7--7--7--7---7---7-9--------------| 
C|-5--5--5---5-----5--5-7-----7--7--7--7--7---7---7-9--------------| 

d|-----------------------------------------------------------------| 
A|-----------------------------------------------------------------| 
F|-----------------------------------------------------------------| 
C|-(9)-9--9--9--9--9---9--9-9---9--9--9--9--9--9--9--9---14-14-14--| 
G|-(9)-9--9--9--9--9---9--9-9---9--9--9--9--9--9--9--9---14-14-14--| 
C|-(9)-9--9--9--9--9---9--9-9---9--9--9--9--9--9--9--9---12-12-12--| 

d|-----------------------------------------------------------------| 
A|-----------------------------------------------------------------| 
F|------------9--9--9---9---9-----8-----11------14------16---------| 
C|-14--14-----7--7--7---7---7-----X-----X-------X-------X----------| 
G|-14--14-----7--7--7---7---7-----6-----9-------12------14---------| 
C|-12--12-----7--7--7---7---7--------------------------------------| 

d|-----------2---2---------------2---2-----------------------------| 
A|-----------2---2---------------2---2-----------------------------| 
F|-4--4--4---4---4-----4--4--4---4---4-----------------------------| 
C|-4--4--4---4---4-----4--4--4---4---4-----7--7--7---7-----2-2-2-2-| 
G|-2--2--2---2---2-----2--2--2---2---2-----5--5--5---5-----2-2-2-2-| 
C|-----------------------------------------5--5--5---5-----2-2-2-2-| 
Comments