Papa Roach - She Loves Me Not Chords & Tabs

 

She Loves Me Not Chords & Tabs

Papa Roach Chords & Tabs

Version: 6 Type: Tab 0 ratings
1 star 2 stars 3 stars 4 stars 5 stars
comments

She Loves Me Not Tab

Drop D Tuning

Slide    /
Scratch  x

Verse:
E|-------------------------------------------------------
B|-------------------------------------------------------
G|--22--2--------------------22--2--------------------22-
D|--22--233--300--x22xxx22xxx22--233--300--x22xxx00xxx22-
A|--00--033--300--x22xxx22xxx00--033--300--x22xxx00xxx00-
D|-------33--300--x22xxx22xxx-----33--300--x22xxx00xxx---

E|------------------------
B|------------------------
G|-2----------------------
D|-233--300--x22xxx22xxx--
A|-033--300--x22xxx22xxx--
D|--33--300--x22xxx22xxx-- (Goes right into pre-chorus)

Pre-Chorus:
E|--------------------------------------------------
B|--------------------------------------------------
G|--22----------------------------------------------
D|--22--22--2---33--22--2---00--22--2---22--22--2---
A|--00----3--3--33----3--3--00----3--3--22----3--3--
D|--------------33----------00----------22----------

Chorus:
E|---------------------------------------------------
B|---------------------------------------------------
G|----------------------------------(Chorus Outro)---
D|--3-3-3--5-5-5--7-7-7--7-7-7-----33--33/55--55/77--
A|--3-3-3--5-5-5--7-7-7--7-7-7-----33--33/55--55/77--
D|--3-3-3--5-5-5--7-7-7--7-7-7-X2--33--33/55--55/77--

Verse:
E|-------------------------------------------------------
B|-------------------------------------------------------
G|--22--2--------------------22--2--------------------22-
D|--22--233--300--x22xxx22xxx22--233--300--x22xxx00xxx22-
A|--00--033--300--x22xxx22xxx00--033--300--x22xxx00xxx00-
D|-------33--300--x22xxx22xxx-----33--300--x22xxx00xxx---

E|------------------------
B|------------------------
G|-2----------------------
D|-233--300--x22xxx22xxx--
A|-033--300--x22xxx22xxx--
D|--33--300--x22xxx22xxx--

Pre-Chorus:
E|--------------------------------------------------
B|--------------------------------------------------
G|--22----------------------------------------------
D|--22--22--2---33--22--2---00--22--2---22--22--2---
A|--00----3--3--33----3--3--00----3--3--22----3--3--
D|--------------33----------00----------22----------
[ Tab from: http://www.guitartabs.cc/tabs/p/papa_roach/she_loves_me_not_tab_ver_6.html ]
2nd Chorus:
E|-------------------------------------------------------
B|-------------------------------------------------------
G|--------(First Part)X2-------------(Second Part)X2-----
D|--3-3-3--5-5-5--7-7-7--7-7-7---10-10-10--5-5-5--7-7-7--
A|--3-3-3--5-5-5--7-7-7--7-7-7---10-10-10--5-5-5--7-7-7--
D|--3-3-3--5-5-5--7-7-7--7-7-7---10-10-10--5-5-5--7-7-7--

E|--------------------
B|--------------------
G|---(Chorus Outro)---
D|--33--33/55--55/77--
A|--33--33/55--55/77--
D|--33--33/55--55/77--

Verse:
E|-------------------------------------------------------
B|-------------------------------------------------------
G|--22--2--------------------22--2--------------------22-
D|--22--233--300--x22xxx22xxx22--233--300--x22xxx00xxx22-
A|--00--033--300--x22xxx22xxx00--033--300--x22xxx00xxx00-
D|-------33--300--x22xxx22xxx-----33--300--x22xxx00xxx---

E|------------------------
B|------------------------
G|-2----------------------
D|-233--300--x22xxx22xxx--
A|-033--300--x22xxx22xxx--
D|--33--300--x22xxx22xxx--


Pre-Chorus:
E|--------------------------------------------------
B|--------------------------------------------------
G|--22----------------------------------------------
D|--22--22--2---33--22--2---00--22--2---22--22--2---
A|--00----3--3--33----3--3--00----3--3--22----3--3--
D|--------------33----------00----------22----------

3rd Chorus:
E|---------------------------------------------------------
B|---------------------------------------------------------
G|--------(First Part)X2--------------(Second Part)X1------
D|--3-3-3--5-5-5--7-7-7--7-7-7---33333333/55555555/77777777
A|--3-3-3--5-5-5--7-7-7--7-7-7---33333333/55555555/77777777
D|--3-3-3--5-5-5--7-7-7--7-7-7---33333333/55555555/77777777

E|------------------------------------------------
B|-----------(Third Part)X1-----------------------
G|------------------------------------------------
D|77777777---10-10-10--5-5-5--7-7-7--3-3-3--0-0-0-
A|77777777---10-10-10--5-5-5--7-7-7--3-3-3--0-0-0-
D|77777777---10-10-10--5-5-5--7-7-7--3-3-3--0-0-0-

E|-----------------------------------
B|-----------------------------------
G|-----------------------------------
D|-2222222222222222/3-3-3--5-5-5--7--
A|-2222222222222222/3-3-3--5-5-5--7--
D|-2222222222222222/3-3-3--5-5-5--7--
Comments