Papa Roach - She Loves Me Not Chords & Tabs

 

She Loves Me Not Chords & Tabs

Papa Roach Chords & Tabs

Version: 4 Type: Tab 0 ratings
1 star 2 stars 3 stars 4 stars 5 stars
comments

She Loves Me Not Tab

   
Artist: Papa Roach
Song: She Loves Me Not
Album: Let Em' Know
Tunning: D A D G B E
Tabbed By: Dean K.(projectwyze13@hotmail.com)  
 

Intro/Verses
E|---------------------------------------|
B|---------------------------------------|
G|---------------------------------------|
D|-7-7---3-3-3--0-0-0---2-2-xxx-2-2-xxx--|
A|-7-7---3-3-3--0-0-0---2-2-xxx-2-2-xxx--|
D|-7-7---3-3-3--0-0-0---2-2-xxx-2-2-xxx--|
[ Tab from: http://www.guitartabs.cc/tabs/p/papa_roach/she_loves_me_not_tab_ver_4.html ]
Pre-Chorus
E|------------------------------------------------|
B|------------------------------------------------|
G|------------------------------------------------|
D|-7-7------9--3-3------9--0-0------9--2-2------9-|
A|-7-7--7-7----3-3--7-7----0-0--7-7----2-2--7-7---|
D|-7-7---------3-3---------0-0---------2-2--------|

Chorus
E|-----------------------------------------|
B|-----------------------------------------|
G|-----------------------------------------|
D|-3-3-3--3--5-5-5--5--7-7-7--7--7-7-7--7--|
A|-3-3-3--3--5-5-5--5--7-7-7--7--7-7-7--7--|
D|-3-3-3--3--5-5-5--5--7-7-7--7--7-7-7--7--|

Post Chorus
E|---------------------|
B|---------------------|
G|---------------------|
D|-3-3--3-3\5-5--5-5\7-|
A|-3-3--3-3\5-5--5-5\7-|
D|-3-3--3-3\5-5--5-5\7-|

Bridge
E|--------------------------------0---------0-|
B|--------------------------------0---------0-|
G|--------------------------------------------|
D|-10-10-10--10--5-5-5--5--7-7-7-----7-7-7----|
A|-10-10-10--10--5-5-5--5--7-7-7-----7-7-7----|
D|-10-10-10--10--5-5-5--5--7-7-7-----7-7-7----|
Comments