Papa Roach - Scars(acoustic) Chords & Tabs

 

Scars(acoustic) Chords & Tabs

Papa Roach Chords & Tabs

Version: 2 Type: Tab 0 ratings
1 star 2 stars 3 stars 4 stars 5 stars
comments

Scars(acoustic) Tab

   
Song: Acoustic Scars
Band: Papa Roach
Tabbed by: Chris

I've tabbed this is Drop D.
D-A-D-G-B-E (Low-high)


Intro x2
E------------------------------------------------------------------------|
B------------------------------------------------------------------------|
G-4----6----6----4----6--------------------------------------------------|
D-4----4----6----2----4--------------------------------------------------|
A-2----4----4----2----4--------------------------------------------------|
D------4---------2----4--------------------------------------------------|


Verse x2
E----------------------------------------------------------------------|
B----------------------------------------------------------------------|
G-----------------4-3---------4-3---------4-3--------------------------|
D-6-6-9-8-6---1-1-1-1-4---2-2-2-2-4---4-4-x-x-4------------------------|
A-6-6-6-6-9---1-1-1-1-1---2-2-2-2-2---4-4-4-4-4------------------------|
D-6-6-6-6-6---1-1-1-1-1---2-2-2-2-2---4-4-4-4-4------------------------|


Chorus one x1
E------------------------------------------------------------------|
B------------------------------------------------------------------|
G-4-4-4-4-4-4-4----6-6-6-6-6-6-6----6-6-6-6-6-6-6------------------|
D-4-4-4-4-4-4-4----4-4-4-4-4-4-4----6-6-6-6-6-6-6------------------|
A-2-2-2-2-2-2-2----4-4-4-4-4-4-4----4-4-4-4-4-4-4------------------|
D------------------4-4-4-4-4-4-4-----------------------------------|

E-------------------------------------------------------------------------|
B-------------------------------------------------------------------------|
G-4-4-4-4-4-4-4-----------------------------------------------------------|
D-2-2-2-2-2-2-2-----------------------------------------------------------|
A-2-2-2-2-2-2-2-----------------------------------------------------------|
D-2-2-2-2-2-2-2-----------------------------------------------------------|

E------------------------------------------------------------------|
B------------------------------------------------------------------|
G-4-4-4-4-4-4-4----6-6-6-6-6-6-6----6-6-6-6-6-6-6------------------|
D-4-4-4-4-4-4-4----4-4-4-4-4-4-4----6-6-6-6-6-6-6------------------|
A-2-2-2-2-2-2-2----4-4-4-4-4-4-4----4-4-4-4-4-4-4------------------|
D------------------4-4-4-4-4-4-4-----------------------------------|

E-----------------------------------------------------------------------|
B-----------------------------------------------------------------------|
G-4-4-4-------6-6-6-6-6-6-----------------------------------------------|
D-2-2-2--0-0--4-4-4-4-4-4-----------------------------------------------|
A-2-2-2--0-0--4-4-4-4-4-4-----------------------------------------------|
D-2-2-2--0-0--4-4-4-4-4-4-----------------------------------------------|

[ Tab from: http://www.guitartabs.cc/tabs/p/papa_roach/scarsacoustic_tab_ver_2.html ]
Bridge x2
E-------------------------------------------------------------------|
B-------------------------------------------------------------------|
G-4-4-4-4-4-4-4-4-4-4----6-6-6-6-6-6-6-6-6-6------------------------|
D-2-2-2-2-2-2-2-2-2-2----4-4-4-4-4-4-4-4-4-4------------------------|
A-2-2-2-2-2-2-2-2-2-2----4-4-4-4-4-4-4-4-4-4------------------------|
D-2-2-2-2-2-2-2-2-2-2----4-4-4-4-4-4-4-4-4-4------------------------|

E-----------------------------------------------------------------|
B-----------------------------------------------------------------|
G-4-4-4-4---4-4---4-4-4-4---4-4---4-4-4-4-4-4----6-6-6-6-6-6------|
D-4-4-4-4---4-4---4-4-4-4---4-4---2-2-2-2-2-2----4-4-4-4-4-4------|
A-2-2-2-2---0-0---1-1-1-1---0-0---2-2-2-2-2-2----4-4-4-4-4-4------|
D---------------------------------2-2-2-2-2-2----4-4-4-4-4-4------|


Chorus two (This is played straight after the bridge)
E------------------------------------------------------------------|
B------------------------------------------------------------------|
G-4-4-4-4-4-4-4----6-6-6-6-6-6-6----6-6-6-6-6-6-6------------------|
D-4-4-4-4-4-4-4----4-4-4-4-4-4-4----6-6-6-6-6-6-6------------------|
A-2-2-2-2-2-2-2----4-4-4-4-4-4-4----4-4-4-4-4-4-4------------------|
D------------------4-4-4-4-4-4-4-----------------------------------|

E-------------------------------------------------------------------------|
B-------------------------------------------------------------------------|
G-4-4-4-4-4-4-4-----------------------------------------------------------|
D-2-2-2-2-2-2-2-----------------------------------------------------------|
A-2-2-2-2-2-2-2-----------------------------------------------------------|
D-2-2-2-2-2-2-2-----------------------------------------------------------|

E------------------------------------------------------------------|
B------------------------------------------------------------------|
G-4-4-4-4-4-4-4----6-6-6-6-6-6-6---4-4-4-4-4-4-4-4-----------------|
D-4-4-4-4-4-4-4----4-4-4-4-4-4-4---2-2-2-2-2-2-2-2-----------------|
A-2-2-2-2-2-2-2----4-4-4-4-4-4-4---2-2-2-2-2-2-2-2-----------------|
D------------------4-4-4-4-4-4-4---2-2-2-2-2-2-2-2-----------------|

E-------------------------------------------------------------------------|
B-------------------------------------------------------------------------|
G-6-6-6-6-6-6-6-6---------------------------------------------------------|
D-4-4-4-4-4-4-4-4---------------------------------------------------------|
A-4-4-4-4-4-4-4-4---------------------------------------------------------|
D-4-4-4-4-4-4-4-4---------------------------------------------------------|


Ending Chord x1 (Just strum this once at the end and let it ring)
E-----------------------------------------------------------------------------|
B-----------------------------------------------------------------------------|
G-4---------------------------------------------------------------------------|
D-4---------------------------------------------------------------------------|
A-2---------------------------------------------------------------------------|
D-----------------------------------------------------------------------------|


Structure of song:

Intro x2
Verse x2
Chorus 1 x1
Verse x2
Chorus x2
Bridge x2
Chorus two x2
Chorus one x2
Ending Chord
Comments